Song name
# A B C D E F G H I J K L M N O P Q R S T U V W X Y Z

Misc Computer Games - Life In The Mines tab

Help us improve GuitareTab! Take a short survey!
-------------------------------------------------------------------------------
         Donkey Kong Country Life in the Mines - Misc Computer Games
-------------------------------------------------------------------------------
Tabbed by: Omar Razavi
Email:

Tuning:Standard

e|-7-/-18--7-/-22-|----------------------------------------------------|----|
B|-6-/-17--6-/-21-|------15------15-15-17-18-15-17-18-17-18-17---------|----|
G|----------------|-15-17---15-17-----------------------------17-17-19-|----|
D|----------------|----------------------------------------------------|----|
A|----------------|----------------------------------------------------|----|
E|----------------|----------------------------------------------------|----|

e|------------------------------------------------------17-15-17-|-----------|
B|------15-----15-15-17-18-15-17-18-17-18-17--18-17-15-----------|-----------|
G|-15-17--15-17-----------------------------17--------17---------|-10-9-10-9-|
D|---------------------------------------------------------------|-----------|
A|---------------------------------------------------------------|-----------|
E|---------------------------------------------------------------|-----------|

e|-7-------|----------------------------------------------------------------|
B|---------|----------------------------------------------------------------|
G|-7-------|----------------------------------------------------------------|
D|--8-10-7-|----------------------------------------------------------------|
A|---------|-7-7-7-7-7-7-7-7-7-7-7-7-8-8-8-8-8-8-8-8-8-8-8-8-10-10-10-10-10-|
E|---------|-5-5-5-5-5-5-5-5-5-5-5-5-6-6-6-6-6-6-6-6-6-6-6-6--8--8--8--8--8-|

e|----------------------------------------------|-|
B|----------------------------------------------|-|
G|----------------------------------------------|-|
D|----------------------------------------------|-|
A|-10-10-10-10-10-10-10-5-5-5-5-5-5-5-5-5-5-5-5-|-|
E|--8--8--8--8--8--8--8-3-3-3-3-3-3-3-3-3-3-3-3-|-|

      Enjoy!!!

| /  slide up
| \  slide down
| h  hammer-on
| p  pull-off
| ~  vibrato
| +  harmonic
| x  Mute note
=========================================================
Related for Life In The Mines tab