Song name
# A B C D E F G H I J K L M N O P Q R S T U V W X Y Z

Misc Computer Games - Donkey Kong Country 2 - Boss Bossanova tab

-------------------------------------------------------------------------------
		 Donkey Kong Country 2 Boss Bossanova - Misc Computer Games
-------------------------------------------------------------------------------
Tabbed by: Omar Razavi
Email:

Tuning:Standard

e|-----------------|-1-1-4-1-4-1-0-0-1-31-1-1-4-1-4-1-0-0-1-3-1-1-1-4-1-4-1-|
B|-----------------|---------------------1----------------------------------|
G|-5-6-5-3-5-6-5-3-|--------------------------------------------------------|
D|-----------------|--------------------------------------------------------|
A|-----------------|--------------------------------------------------------|
E|-----------------|--------------------------------------------------------|

e|0-1-0-1-3-1-0-1-3-1-0-1-3-3-4-6-4-4-6-4-3-4---3-4-3-4-4-6-4-3-4-9-8-6-8------|
B|---------------------------------6-6-------6-6-------6-6-------6-------9-----|
G|-----------------------------------------------------------------------------|
D|-----------------------------------------------------------------------------|
A|-----------------------------------------------------------------------------|
E|-----------------------------------------------------------------------------|

e|--6-8-6-|-|
B|-9------|-|
G|--------|-|
D|--------|-|
A|--------|-|
E|--------|-|

| /  slide up
| \  slide down
| h  hammer-on
| p  pull-off
| ~  vibrato
| +  harmonic
| x  Mute note
===============================================================================
Tap to rate this tab
# A B C D E F G H I J K L M N O P Q R S T U V W X Y Z