Song name
# A B C D E F G H I J K L M N O P Q R S T U V W X Y Z

Misc Computer Games - Donkey Kong Country 2 - Island Mapwelcome To Crocodile Isle tab

----------------------------------------------------------------------------
Donkey Kong Country 2 Island Map "Welcome to crocodile Isle" - Misc Computer Games
-------------------------------------------------------------------------------
Tabbed by:aziz razavi
Email:azizrazavi@hotmail.com

Tuning:Standard

e|--------------------------0-|-------------------------------------|--------|
B|-0-1-0-0-1-0-0-1-0-1-3-1-3--|-------------------------------------|----1-1-|
G|------2-----2---------------|-------------------------------------|-2-2-2--|
D|----------------------------|-------------------------------------|--------|
A|----------------------------|-0-0-3-0-3-0-0-2-0-0-0-3-0-3-0-0-2-0-|--------|
E|----------------------------|------------4-----0-----------4------|--------|

e|------------------------------------------0-|-13-13-13-12-12-12---------------|
B|-------0-------1-1-------------------0-1-3--|-13-13-13-12-12-12-12-13-12------|
G|-2-1-2--2-2-2-2-2-2-1-2-1-1-2-4-2-1-2-------|-14-14-14-13-13-13---------------|
D|---------2----------------------------------|---------------------------------|
A|--------------------------------------------|---------------------------------|
E|--------------------------------------------|---------------------------------|

e|--------------13-13-13-12-12-12-------------------------------------------|
B|---12-13-12---13-13-13-12-12-12-12-13-12--12-13-12--12-13-12-13-15-13-15--|
G|-14--------14-14-14-14-13-13-13---------14--------14----------------------|
D|--------------------------------------------------------------------------|
A|--------------------------------------------------------------------------|
E|--------------------------------------------------------------------------|

e|-12-|-|
B|----|-|
G|----|-|
D|----|-|
A|----|-|
E|----|-|

 Enjoy!!!

| /  slide up
| \  slide down
| h  hammer-on
| p  pull-off
| ~  vibrato
| +  harmonic
| x  Mute note
===================================================================
Tap to rate this tab
 
# A B C D E F G H I J K L M N O P Q R S T U V W X Y Z