Song name
# A B C D E F G H I J K L M N O P Q R S T U V W X Y Z

Misc Computer Games - Super Smash Brothers - Dream Land tab

Dreamland
Super Smash Brothers
Composed by Hirozaku Ando
Tabbed by Richard Schaefer (richard@gametabs.net)
2/25/07

This is version 2 of my original Dreamland guitar tab,
which can be found at http://www.gametabs.net/tabs/n64/ssb/dreamland.txt

e----------------------------|
B--8--6-----------------6----|
G-------8-7-------5-7-8---7--|
D-----------8-5--------------|
A----------------------------|
E----------------------------|

e--8---------------------------------8---------------------------------|
B------8---------------------------------8----------------6------------|
G----------8-7-5---5-7-8-5---5---------------8-7-5--5-7-8---7---5---5--|
D--------------------------8---5------------------------------8---5----|
A----------------------------------------------------------------------|
E----------------------------------------------------------------------|

e--8---------------------------------8--------------------------|
B------8---------------------------------8-----6-8-----6--------|
G----------8-7-5---5-7-8-5---5---------------8-----5-7---7---5--|
D--------------------------8---5---------------------------8----|
A---------------------------------------------------------------|
E---------------------------------------------------------------|

e---------------------------------|
B---------------------------------|
G------------------------------0--|
D----------1-0-------------1-3----|
A--------3-----3---------3--------|
E--1-1-4---------3-1-1-4----------|

e-----------------------------------------------------|
B--9---8-6----6-8----8---6-6-6-6--------6----6--8-----|
G-----------8------5-------------8-7--8---8--------8--|
D-----------------------------------------------------|
A-----------------------------------------------------|
E-----------------------------------------------------|

e---------------------------------|
B---------------------------------|
G------------------------------0--|
D----------1-0-------------1-3----|
A--------3-----3---------3--------|
E--1-1-4---------3-1-1-4----------|

e-------------6-8-----------------------------|
B--9---8-6--8------8-------------6------------|
G---------------------8--5---7-7---7-------5--|
D------------------------------------8-5-8----|
A---------------------------------------------|
E---------------------------------------------|

e--------------13-15-15-15-13-----------------------|
B--16-16-16-16----------------16-15-15-15-15-16-15--|
G---------------------------------------------------|
D---------------------------------------------------|
A---------------------------------------------------|
E---------------------------------------------------|

e------------------------------------------------------|
B--16-15-13-13-13-13-15-16-16-15-13-------------13-15--|
G-----------------------------------15-15-15-15--------|
D------------------------------------------------------|
A------------------------------------------------------|
E------------------------------------------------------|

e-----------------------------------------------11-13-11------|
B--13-------------------13-13-13--------------------------11--|
G-----15-13-13-13-13-15----------15-13-12-12-12---------------|
D-------------------------------------------------------------|
A-------------------------------------------------------------|
E-------------------------------------------------------------|

e--------------13-14-14-14-16-14-13-13-13-13-14-13--|
B--16-16-16-16--------------------------------------|
G---------------------------------------------------|
D---------------------------------------------------|
A---------------------------------------------------|
E---------------------------------------------------|

e--15-13-------------13-15-15-15-13-----------------------|
B--------16-16-16-16----------------16-15-15-15-15-16-15--|
G---------------------------------------------------------|
D---------------------------------------------------------|
A---------------------------------------------------------|
E---------------------------------------------------------|

e------------------------------------------------------|
B--16-15-13-13-13-13-15-16-16-15-13-------------13-15--|
G-----------------------------------15-15-15-15--------|
D------------------------------------------------------|
A------------------------------------------------------|
E------------------------------------------------------|

e-----------------------------------13-15-15-15-15-18-15-15-13-----|
B--13-------------------13-13-13-15----------------------------16--|
G-----15-13-13-13-13-15--------------------------------------------|
D------------------------------------------------------------------|
A------------------------------------------------------------------|
E------------------------------------------------------------------|

e-----13-15----13-15----13----13-15-20-19--|
B--15-------15-------15----15--------------|
G------------------------------------------|
D------------------------------------------|
A------------------------------------------|
E------------------------------------------|
Tap to rate this tab
# A B C D E F G H I J K L M N O P Q R S T U V W X Y Z