Song name
# A B C D E F G H I J K L M N O P Q R S T U V W X Y Z

Misc Computer Games - Donkey Kong Country 2- Cocaphone Krool tab

-------------------------------------------------------------------------------
	Donkey Kong Country 2 Cocaphone Krool - Misc Computer Games
-------------------------------------------------------------------------------
Tabbed by:aziz razavi
Email:azizrazavi@hotmail.com

Tuning:Standard

e|--------------------------------------------------------------------------
B|--------------------------------------10-11-11-11-11-11-11-11-11-11-11-10-
G|--7-8-9-9-10-11-/-12-10-11-12-11-12-13------------------------------------
D|--------------------------------------------------------------------------
A|--------------------------------------------------------------------------
E|--------------------------------------------------------------------------

e|----------------------------|---------------------------------------------
B|-10-10-10-10-10-10-10-10-10-|--------------------------|------------------
G|----------------------------|-8-7-8-7-8-7-8-7-8-7-10-7-|-8-7-8-7-8-7-8-7--
D|----------------------------|----8---8-------8---8-----|----7---7-------7-
A|----------------------------|--------------------------|------------------
E|----------------------------|--------------------------|------------------

e|----------|---------------------------------------|-----------------------
B|-8-7-10-7-|---------------------------------------|-----------------------
G|----7-----|---------------------------------------|-----------------------
D|----------|---------------------------------------|-----------------------
A|----------|---------------------------------------|-----------------------
E|----------|-3-3-3-3-6-3--3-3-6-3-3-3-3-6-3--3-3-1-|-3-3-3-3-6-3--3-3-6--3-

e|------------------|-----------------------------------|-3-/-10-10-10-8-6-5
B|------------------|-----------------------------------|-------------------
G|------------------|-----------------------------------|-------------------
D|------------------|------5-7-5-5-5-7-----5-7-5-5------|-------------------
A|------------------|-5-5-8---8---8---8-5-8---8---8-7-5-|-------------------
E|-3-3-3-6-3--3-3-5-|-----------------------------------|-------------------

e|-6-5-6-5-3-/-10-10-10-8-6-5-6-5-6-8-6-5-5-6-8-6-6-/-10-|------------------
B|-------------------------------------------------------|------------------
G|-------------------------------------------------------|------------------
D|-------------------------------------------------------|------------------
A|-------------------------------------------------------|-5-5-5--5-5-5--5-5
E|-------------------------------------------------------|-3-3-3--3-3-3--3-3

e|----------|-|
B|----------|-|
G|----------|-|
D|----------|-|
A|-5--5-5-5-|-|
E|-3--3-3-3-|-|

Enjoy!!!

| /  slide up
| \  slide down
| h  hammer-on
| p  pull-off
| ~  vibrato
| +  harmonic
| x  Mute note
===============================================================================
Tap to rate this tab
# A B C D E F G H I J K L M N O P Q R S T U V W X Y Z