Song name
# A B C D E F G H I J K L M N O P Q R S T U V W X Y Z

Misc Computer Games - Mega Man X Theme tab

                  Zero's Theme - Megaman X
----------------------------------------------------------------------------
Tab: Mr Lordi
Email: Coldfear275@aim.com

Tempo - 145

I couldn't tab out the solo so I stopped just before it but other than that this tab is 
accurate

Lead Guitar

   *MELODY*
     E  S S E  S S S S E  E  S S    E  S S E  S S H
E||------------------------------|-------------------------|
B||------------------------------|-------------------------|
G||---------5----3-L---1--0------|---------5----3-L--------|
D||--------------------------3-1-|-------------------------|
A||--3--3-3----3-----3-----------|--3--3-3----3------------|
E||------------------------------|-------------------------|


  E  S S E  S S S S E  E  S S    E  S S S S S S H
------------------------------|--------------------------|
------------------------------|--------------------------|
---------5----3-L---1--0------|--------------------------|
--------------------------3-1-|--------------------------|
--3--3-3----3-----3-----------|--3--3-3-3-1-2-3-L--------|
------------------------------|--------------------------|


  E  S S E  S S S S E  E  S S    E  S S E  S S H
------------------------------|-------------------------|
------------------------------|-------------------------|
---------5----3-L---1--0------|---------5----3-L--------|
--------------------------3-1-|-------------------------|
--3--3-3----3-----3-----------|--3--3-3----3------------|
------------------------------|-------------------------|


  E  S S E  S S S S E  E  S S    E  S S S S S S H
------------------------------|--------------------------|
------------------------------|--------------------------|
---------5----3-L---1--0------|--------------------------|
--------------------------3-1-|--------------------------|
--3--3-3----3-----3-----------|--3--3-3-3-1-2-3-L--------|
------------------------------|--------------------------|


  E  S S E  S S S S E  E  S S    E  S S E  S S H
------------------------------|-------------------------|
------------------------------|-------------------------|
---------5----3-L---1--0------|---------5----3-L--------|
--------------------------3-1-|-------------------------|
--3--3-3----3-----3-----------|--3--3-3----3------------|
------------------------------|-------------------------|


  E  S S E  S S S S E  E  S S    E  S S S S S S H
------------------------------|--------------------------|
------------------------------|--------------------------|
---------5----3-L---1--0------|--------------------------|
--------------------------3-1-|--------------------------|
--3--3-3----3-----3-----------|--3--3-3-3-1-2-3-L--------|
------------------------------|--------------------------|


  E  S S E  S S S S E  E  S S    E  S S E  S S H
------------------------------|-------------------------|
------------------------------|-------------------------|
---------5----3-L---1--0------|---------5----3-L--------|
--------------------------3-1-|-------------------------|
--3--3-3----3-----3-----------|--3--3-3----3------------|
------------------------------|-------------------------|


  E  S S E  S S S S E  E  S S    E  S S S S S S H
------------------------------|--------------------------|
------------------------------|--------------------------|
---------5----3-L---1--0------|--------------------------|
--------------------------3-1-|--------------------------|
--3--3-3----3-----3-----------|--3--3-3-3-1-2-3-L--------|
------------------------------|--------------------------|

 *INTERLUDE* (BEFORE SOLO)
  E  E  S E.  E.  E  S E     E  E  S E.  E.  E  S E
--------------------------|--------------------------|
-----1----1---0---0----0--|-----0----0---------------|
--------------------------|--------------3---3----3--|
--------------------------|--------------------------|
--3-----------------------|--------------------------|
--------------------------|--------------------------|


  E  E  S E.  E.  E  S E     E  E  S E.  E.  E  S E
--------------------------|--------------------------|
-----1----1---0---0----0--|-----0----0---------------|
--------------------------|--------------3---3----3--|
--------------------------|--------------------------|
--3-----------------------|--------------------------|
--------------------------|--------------------------|


  E  E  S E.  E.  E  S E     E  E  S E.  E.  E  S E
-----0----0---------------|--------------------------|
--------------4---4----4--|-----3----3---2---2----2--|
--------------------------|--------------------------|
--3-----------------------|--------------------------|
--------------------------|--------------------------|
--------------------------|--------------------------|


  E  E  S E.  E.  E  S E     E  E  S E.  E.  E  S E
-----0----0---------------|--------------------------|
--------------4---4----4--|-----3----3---2---2----2--|
--------------------------|--------------------------|
--3-----------------------|--------------------------|
--------------------------|--------------------------|
--------------------------|--------------------------|


  E  E  S E.  E.  E  S E     E  E  S E.  E.  E  S E
--------------------------|--------------------------||
--------------------------|--------------------------||
-----0----0---2---2----2--|-----3----3---5---5----5--||
--------------------------|--------------------------||
--------------------------|--------------------------||
--------------------------|--------------------------||


Rhythm Guitar

  *MELODY*
     E  S S E  S S S S E  E  S S    E  S S E  S S H
E||------------------------------|-------------------------|
B||---------8----6-L---4--3--1---|---------8----6-L--------|
G||----------------------------3-|-------------------------|
D||--5--5-5----5-----5-----------|--5--5-5----5------------|
A||------------------------------|-------------------------|
E||------------------------------|-------------------------|


  E  S S E  S S S S E  E  S S    E  S S S S S S H
------------------------------|--------------------------|
---------8----6-L---4--3--1---|--------------------------|
----------------------------3-|--------------------------|
--5--5-5----5-----5-----------|--5--5-5-5-3-4-5-L--------|
------------------------------|--------------------------|
------------------------------|--------------------------|


  E  S S E  S S S S E  E  S S    E  S S E  S S H
------------------------------|-------------------------|
---------8----6-L---4--3--1---|---------8----6-L--------|
----------------------------3-|-------------------------|
--5--5-5----5-----5-----------|--5--5-5----5------------|
------------------------------|-------------------------|
------------------------------|-------------------------|


  E  S S E  S S S S E  E  S S    E  S S S S S S H
------------------------------|--------------------------|
---------8----6-L---4--3--1---|--------------------------|
----------------------------3-|--------------------------|
--5--5-5----5-----5-----------|--5--5-5-5-3-4-5-L--------|
------------------------------|--------------------------|
------------------------------|--------------------------|

  *HARMONY*
  E  S S E  S S S S E  E  S S    E  S S E  S S H
---------8----6-L---4--3--1---|---------8----6-L--------|
----------------------------4-|-------------------------|
--5--5-5----5-----5-----------|--5--5-5----5------------|
------------------------------|-------------------------|
------------------------------|-------------------------|
------------------------------|-------------------------|


  E  S S E  S S S S E  E  S S    E  S S S S S S H
---------8----6-L---4--3--1---|--------------------------|
----------------------------4-|--------------------------|
--5--5-5----5-----5-----------|--5--5-5-5-3-4-5-L--------|
------------------------------|--------------------------|
------------------------------|--------------------------|
------------------------------|--------------------------|


  E  S S E  S S S S E  E  S S    E  S S E  S S H
------------------------------|-------------------------|
---------8----6-L---4--3--1---|---------8----6-L--------|
----------------------------3-|-------------------------|
--5--5-5----5-----5-----------|--5--5-5----5------------|
------------------------------|-------------------------|
------------------------------|-------------------------|


  E  S S E  S S S S E  E  S S    E  S S S S S S H
------------------------------|--------------------------|-----------|
---------8----6-L---4--3--1---|--------------------------|-----------|
----------------------------3-|--------------------------|-----------|
--5--5-5----5-----5-----------|--5--5-5-5-3-4-5-L--------|-----------|
------------------------------|--------------------------|-----------|
------------------------------|--------------------------|-----------|


-----------||
-----------||
-----------||
-----------||
-----------||
-----------||


Duration Legend
---------------
W - whole
H - half
Q - quarter
E - 8th
S - 16th
T - 32nd
X - 64th
. - note dotted
|-n-|  - n-tuplets


Tablature Legend
----------------
L - tied note
x - dead note
g - grace note
(n) - ghost note
> - accentuded note
NH - natural harmonic
AH - artificial harmonic
TH - tapped harmonic
SH - semi harmonic
PH - pitch harmonic
h - hammer on
p - pull off
b - bend
br - bendRelease
pb - preBend
pbr - preBendRelease
brb - bendReleaseBend
\n/ - tremolo bar dip
\n - tremolo bar dive
-/n - tremolo bar Release up
/n\ - tremolo bar inverted dip
/n - tremolo bar return
-\n - tremolo bar Release down
S - shift slide
s - legato slide
/ -  slide into from below or out of upwards
\ -  slide into from above or out of downwards
~ - vibrato
W - wide vibrato
tr - trill
TP - tremolo picking
T - tapping
S - slap
P - pop
< - fade in
^ - brush up
v - brush down
Tap to rate this tab
# A B C D E F G H I J K L M N O P Q R S T U V W X Y Z