Song name
# A B C D E F G H I J K L M N O P Q R S T U V W X Y Z

Misc Computer Games - Megaman X - Storm Eagle tab

Help us improve GuitareTab! Take a short survey!
                            Storm Eagle (Stage)
                    Setsuo, Tomozou, Sato, Yuko, Kirry
                                MegaMan X
bpm = 180

|----------------|---------|---------------|---------|-----------------|-----------------|
|----------------|---------|---------------|---------|-----------------|-----------------|
|------4-----4---2-|-------|-----4-----4---2-|-------|-----------------|-----------------|
|------4-----4---2-|-------|-----4-----4---2-|-------|-----4-------4---|-----------------|
|--2-2---2-2---2-0-|---0-1-|-2-2---2-2---2-0-|---0-1-|-2-2---2-2-2---2-|-----4-------4---|
|----------------|---2-----|---------------|---2-----|-----------------|-2-2---2-2-2---2-|



|------------------|-----------------|-----------------|-----------------|----------------|
|------------------|-----------------|-----------------|-----------------|----------------|
|------------------|-----------------|-----------------|-----------------|----------------|
|------------------|-----------------|-----4-------4---|-----------------|----------------|
|------5-------5---|-----7-------8---|-2-2---2-2-2---2-|-----4-------4---|-----5-------5--|
|--3-3---3-3-3---3-|-5-5---5-6-6---6-|-----------------|-2-2---2-2-2---2-|-3-3---3-3-3--3-|



|------------------|-----------------|-----------------|-----------------|-----------------|
|------------------|-----------------|-----------------|-----------------|-----------------|
|------------------|-----------------|-----------------|-----------------|-----------------|
|------------------|-----------------|-----------------|-----------------|---------4-4-4-4-|
|------7-------8---|-----5-------5---|-----8-------8---|---------4-4-4-4-|-5-5-5-5---------|
|--5-5---5-6-6---6-|-3-3---3-3-3---3-|-6-6---6-6-6---6-|-7-7-7-7---------|-----------------|




|------------------|-----------------|-----------------|-------|-----------------|
|------------------|-----------------|-----------------|-------|-----------------|
|------------------|-----------------|-----4-----4---2-|-------|-----4-----4---2-|
|------------------|-----------------|-----4-----4---2-|-------|-----4-----4---2-|
|------5-------5---|-----8-------8---|-2-2---2-2---2-0-|---0-1-|-2-2---2-2---2-0-|
|--3-3---3-3-3---3-|-6-6---6-6-6---6-|-----------------|-2-----|-----------------|


                                                        25x 
|--------|---------------|---------|---------------|---------|
|--------|---------------|---------|---------------|---------|
|--------|-----4-----4---2-|-------|-----4-----4---2-|-------|
|--------|-----4-----4---2-|-------|-----4-----4---2-|-------|
|----0-1-|-2-2---2-2---2-0-|---0-1-|-2-2---2-2---2-0-|---0-1-|
|--2-----|---------------|---2-----|---------------|---2-----|

i dont think this perfect but let me know.
enjoy.
Related for Megaman X - Storm Eagle tab