Song name
# A B C D E F G H I J K L M N O P Q R S T U V W X Y Z

Misc Computer Games - Super Smash Bros Melee - Fourside tab

Tabbed by Robert
email: emericandarkstar@Hotmail.com

Such a soothin' tune.
Best played with an acoustic.

Standard tuning. (E,A,D,G,b,e)

e|------------------------------|
b|----------------------5-7-----|
G|--------4-5-7~------4-----7~--|
D|---5-7----------5-5-----------|
A|-5----------------------------|
E|------------------------------|

e|----------------------------------------------------|
b|----------------------------------------------------|
G|-4-5-4-------4-5-7-5-4-7----4-5-4-------------------|
D|-------7-5-7------------6-7-------7-5-4-4-5/7-7-4~--|
A|----------------------------------------------------|
E|----------------------------------------------------|
Tap to rate this tab
# A B C D E F G H I J K L M N O P Q R S T U V W X Y Z