Guitaretab - guitar tabs
Song name
# A B C D E F G H I J K L M N O P Q R S T U V W X Y Z

Misc Computer Games - Dynasty Warriors - Chibi tab

this is my first tab and i'm not sure about it but i think its fine
and u can play it in 2 ways (first):
e------------------------------------------------------------]
b------------------------------------------------------------]
g------------------------------------------------------------]
d----------------------------------------------5-------------]
a-----------3-5---------5h7-3-----------3-5--7--7-5-7-5-5h7-3]
e-5--5-3--5----5--5-3-5-------5--5-3--5----------------------]

e--------------------------------------]
b--------------------------------------]
g--------------------------------------]
d--------------------------------------]
a----------3-5---0-3-----------3-5---3-]
e-5--5-3--5---5-3-----5--5-3--5---5-3-3]

and the other way is just by staring from the A 
u can send ur correction to this e-mail  blue_wyvern_190@hotmail.com 

[ Tab from: http://www.guitaretab.com/m/misc-computer-games/111871.html ]
Related for Dynasty Warriors - Chibi tab
Advertisement will be closed in 10 seconds