Song name
# A B C D E F G H I J K L M N O P Q R S T U V W X Y Z

Misc Computer Games - Metroid - Brinstar tab

Metroid - Brinstar

E|-3----6--5h6p5-----|\                       E|-3-----------------|
B|----3----------6---| \                      B|-------------------|
G|-------------------|  \ Play 3 times, then  G|-------------------|
D|-------------------|  /                     D|-------------------|
A|-------------------| /                      A|-------------------|
E|-------------------|/                       E|-------------------|

E|-8------6--5h6p5---|\                       E|-3-----------------|
B|----8-8----------6-| \                      B|-------------------|
G|-------------------|  \ Play 3 times, then  G|-------------------|
D|-------------------|  /                     D|-------------------|
A|-------------------| /                      A|-------------------|
E|-------------------|/                       E|-------------------|

E|-5--5-3-5-6-----------5--5-3-5-6-------6-8---|
B|-------------6--8p6h8-------------6--6-------|
G|---------------------------------------------|
D|---------------------------------------------|
A|---------------------------------------------|
E|---------------------------------------------|

E|-10--8--7--8--11-10-8-10---------10-13-14----|
B|--------------------------10--10-------------|
G|---------------------------------------------|
D|---------------------------------------------|
A|---------------------------------------------|
E|---------------------------------------------|
Tap to rate this tab
 
# A B C D E F G H I J K L M N O P Q R S T U V W X Y Z