Song name
# A B C D E F G H I J K L M N O P Q R S T U V W X Y Z

Misc Computer Games - Final Fantasy 3 - Boss Theme tab

                                  Boss Battle                                   


                             Final Fantasy 3
This is the Organ part for the song. Just listen to the song, and you will get it.



      S S S S S S S S S S S S S S S S    S S S S S S S S S S S S S S S S  
E||-----------------------------------|----------------------------------|
B||---5-----6-----7-----6-----5---0-4-|--5-----6-----7-----6-----5---0-4-|
G||*----5-----5-----5-----5-----5-----|----5-----5-----5-----5-----5-----|
D||*------7-----7-----7-----7---------|------7-----7-----7-----7---------|
A||-----------------------------------|----------------------------------|
E||-----------------------------------|----------------------------------|


  S S S S S S S S S S S S S S S S    S S S S S S S S S S S S S S S S  
----------------------------------|----------------------------------|
--5-----6-----7-----6-----5---0-4-|--5-----6-----7-----6-----5---0-4-|
----5-----5-----5-----5-----5-----|----5-----5-----5-----5-----5-4---|
------7-----7-----7-----7---------|------7-----7-----7-----7---------|
----------------------------------|----------------------------------|
----------------------------------|----------------------------------|


  E  E  S E  E  S E  E  E     W                 
---------------------------|-------------------|
-----5---------------------|-------------------|
--------7-5--4--5-7--4-----|-------------------|
--7---------------------5--|--7----------------|
---------------------------|-------------------|
---------------------------|-------------------|


  S S S S S S S S S S S S S S S S    W                   W                 
----------------------------------|-------------------|-------------------|
------5---------------------------|-------------------|-------------------|
--5-------7-5---4---5-7---4-------|-------------------|-------------------|
----7---7-----7---7-----7-----5---|--7----------------|-------------------|
----------------------------7---7-|-------------------|-------------------|
----------------------------------|-------------------|-------------------|


  S S S S S S S S E  S E  S S S    E  S E  S S S S S S S S S S S  
----5-7-8-7-5-------------------|------------------------5---4---|
--5-----------5-----------------|-----5----5---5-6-----5---3---3-|
----------------5-4--5----5-4-5-|--7----5----7-----4-5-----------|
-----------------------7--------|--------------------------------|
--------------------------------|--------------------------------|
--------------------------------|--------------------------------|


  S S S S S S S S E  S E  S S S    E  S E  S S S S S S S S S S S  
--5---8-7-5---------------------|--------------------------8-5-4-|
----5-------5-------------------|-----5----5---5-6---8-5-6-------|
--------------5---4--5----5-4-5-|--7----5----7-----7-------------|
----------------7------7--------|--------------------------------|
--------------------------------|--------------------------------|
--------------------------------|--------------------------------|


   H         H            E.   E.   E   E   S  S  S  S  S  S  
---8--------10--------|--12---10---12------10----------------|
--10--------12--------|--13---12-------13-----13-12-13-12-10-|
----------------------|--------------------------------------|
----------------------|--------------------------------------|
----------------------|--------------------------------------|
----------------------|--------------------------------------|


  H         H            Q     Q     H            H         H         
---------------------|------------------------|---8--------10--------|
--L--------12--------|------------------------|--10--------12--------|
-----------12--------|--------12----11--------|----------------------|
---------------------|--12--------------------|----------------------|
---------------------|------------------------|----------------------|
---------------------|------------------------|----------------------|


  E.   E.   E   E.   E.   E      W                    W                 
--8---10---12--10---12---14--|--17----------------|--------------------|
---------------10------------|--18----------------|--19----------------|
-----------------------------|--------------------|--------------------|
-----------------------------|--------------------|--------------------|
-----------------------------|--------------------|--------------------|
-----------------------------|--------------------|--------------------|


   E.   E.   E   E.   E.   E      E.   E.   E  S  S  S  S  S  S  S  S  
---------------------13-------|--12---15---12----13-12-11-10----------|
-------15-------15--------15--|------------------------------14-13-12-|
--16--------16----------------|---------------------------------------|
------------------------------|---------------------------------------|
------------------------------|---------------------------------------|
------------------------------|---------------------------------------|


  S S S S S S S S S S S S S S S S    S S S S S S S S S S S S S S S S  
----------------------------------|----------------------------------|
--5-----6-----7-----6-----5---0-4-|--5-----6-----7-----6-----5---0-4-|
----5-----5-----5-----5-----5-----|----5-----5-----5-----5-----5-----|
------7-----7-----7-----7---------|------7-----7-----7-----7---------|
----------------------------------|----------------------------------|
----------------------------------|----------------------------------|


  S S S S S S S S S S S S S S S S    S S S S S S S S S S S S S S S S  
----------------------------------|----------------------------------|
--5-----6-----7-----6-----5---0-4-|--5-----6-----7-----6-----5---0-4-|
----5-----5-----5-----5-----5-----|----5-----5-----5-----5-----5-----|
------7-----7-----7-----7---------|------7-----7-----7-----7---------|
----------------------------------|----------------------------------|
----------------------------------|----------------------------------|


  E  E  S E  E  S E  E  E     W                 
---------------------------|-------------------|
-----5---------------------|-------------------|
--------7-5--4--5-7--4-----|-------------------|
--7---------------------5--|--7----------------|
---------------------------|-------------------|
---------------------------|-------------------|


  S S S S S S S S S S S S S S S S    W                   W                 
----------------------------------|-------------------|-------------------|
------5---------------------------|-------------------|-------------------|
--5-------7-5---4---5-7---4-------|-------------------|-------------------|
----7---7-----7---7-----7-----5---|--7----------------|-------------------|
----------------------------7---7-|-------------------|-------------------|
----------------------------------|-------------------|-------------------|


  S S S S S S S S E  S E  S S S    E  S E  S S S S S S S S S S S  
----5-7-8-7-5-------------------|------------------------5---4---|
--5-----------5-----------------|-----5----5---5-6-----5---3---3-|
----------------5-4--5----5-4-5-|--7----5----7-----4-5-----------|
-----------------------7--------|--------------------------------|
--------------------------------|--------------------------------|
--------------------------------|--------------------------------|


  S S S S S S S S E  S E  S S S    E  S E  S S S S S S S S S S S  
--5---8-7-5---------------------|--------------------------8-5-4-|
----5-------5-------------------|-----5----5---5-6---8-5-6-------|
--------------5---4--5----5-4-5-|--7----5----7-----7-------------|
----------------7------7--------|--------------------------------|
--------------------------------|--------------------------------|
--------------------------------|--------------------------------|


   H         H            E.   E.   E   E   S  S  S  S  S  S  
---8--------10--------|--12---10---12------10----------------|
--10--------12--------|--13---12-------13-----13-12-13-12-10-|
----------------------|--------------------------------------|
----------------------|--------------------------------------|
----------------------|--------------------------------------|
----------------------|--------------------------------------|


  H         H            Q     Q     H            H         H         
---------------------|------------------------|---8--------10--------|
--L--------12--------|------------------------|--10--------12--------|
-----------12--------|--------12----11--------|----------------------|
---------------------|--12--------------------|----------------------|
---------------------|------------------------|----------------------|
---------------------|------------------------|----------------------|


  E.   E.   E   E.   E.   E      W                    W                 
--8---10---12--10---12---14--|--17----------------|--------------------|
---------------10------------|--18----------------|--19----------------|
-----------------------------|--------------------|--------------------|
-----------------------------|--------------------|--------------------|
-----------------------------|--------------------|--------------------|
-----------------------------|--------------------|--------------------|


   E.   E.   E   E.   E.   E      E.   E.   E  S  S  S  S  S  S  S  S  4x
---------------------13-------|--12---15---12----13-12-11-10-----------||
-------15-------15--------15--|------------------------------14-13-12--||
--16--------16----------------|---------------------------------------*||
------------------------------|---------------------------------------*||
------------------------------|----------------------------------------||
------------------------------|----------------------------------------||




Duration Legend
---------------
W - whole
H - half
Q - quarter
E - 8th
S - 16th
. - note dotted

Tablature Legend
----------------
L - tied note
PH - pitch harmonic
h - hammer on
p - pull off
b - bend
TP - tremolo picking
Tap to rate this tab
 
# A B C D E F G H I J K L M N O P Q R S T U V W X Y Z