Song name
# A B C D E F G H I J K L M N O P Q R S T U V W X Y Z

Misc Computer Games - Donkey Kong Coutnry - Temple Tempest tab

----------------------------------------------------------------------------
	 Donkey Kong Country Temple Tempest - Misc Computer Games
----------------------------------------------------------------------------
Tabbed by: aziz razavi
Email:azizrazavi@hotmail.com

Tuning:Standard

e|-15-16-15--------15-16-15-13-----------------------------------11-10------|
B|----------------------------11-13------------------13-11--11-13-----11----|
G|---------12-13-12----------------12-13-12-10-8-/-10-----12------------12--|
D|--------------------------------------------------------------------------|
A|--------------------------------------------------------------------------|
E|--------------------------------------------------------------------------|
                here's the fast part
e|------------|-3-1------------------|-9-12--9--------|----21--------9------|
B|-6-/-8------|----1-4-1-------------|-----12---9-----|--21--------12-12--9-|
G|------3-/-5-|---------3-0-3--------|--------11--9---|-21---21-18------11--|
D|------------|--------------1-3-1---|-------------11-|---------------------|
A|------------|-------------------3--|----------------|---------------------|
E|------------|----------------------|----------------|---------------------|

e|-----9--------9----|--------------------------|-|
B|----9--------9-----|------10--11-10-----------|-|
G|---9--9-----9--9---|-10-12--12-----12-8-7-6-5-|-|
D|-11----11-10----10-|--------------------------|-|
A|-------------------|--------------------------|-|
E|-------------------|--------------------------|-|

Enjoy!!!!

| /  slide up
| \  slide down
| h  hammer-on
| p  pull-off
| ~  vibrato
| +  harmonic
| x  Mute note
===============================================================================
Tap to rate this tab
# A B C D E F G H I J K L M N O P Q R S T U V W X Y Z