Song name
# A B C D E F G H I J K L M N O P Q R S T U V W X Y Z

Misc Computer Games - Donkey Kong Country 2 - Mudhole Marsh tab

----------------------------------------------------------------------------
Donkey Kong Country 2 Mudhole Marsh - David Wise
----------------------------------------------------------------------------
Tabbed by: aziz razavi
Email:azizrazavi@hotmail.com

Tuning:Standard

    play 2x             play 2x
e|------15-----------|------17-12-15--12-|-13-12---------12-13-12-----15----|
B|-12-13--12-13------|-12-13--------15---|------15-13--15--------15-13--13--|
G|-------------10-12-|-------------------|-----------14---------------------|
D|-------------------|-------------------|----------------------------------|
A|-------------------|-------------------|----------------------------------|
E|-------------------|-------------------|----------------------------------|

e|-------------------------|-----------------------------------------------|
B|---12-13--12-13--12-13---|-----------------------------------------------|
G|-12-----12-----12-----12-|-14-14-14-14-14-14-14-14-14-14-14-14-14-14-14--|
D|-------------------------|-----------------------------------------------|
A|-------------------------|-----------------------------------------------|
E|-------------------------|-----------------------------------------------|

   play 2x
e|-------------------|---17-15-17---------------17--17-----17--17-20-19-17--|
B|-----12-13---------|-17--------17-15--15-17-17--20--17-17--20-------------|
G|---14-----14-------|----------------17------------------------------------|
D|-14---------14-15--|------------------------------------------------------|
A|-------------------|------------------------------------------------------|
E|-------------------|------------------------------------------------------|

e|-13-12---------12-13-12-----15---|----------0-0-|-|
B|------15-13--15--------15-13--13-|---------3-3--|-|
G|-----------14--------------------|----0-2-4-----|-|
D|---------------------------------|-2-3----------|-|
A|---------------------------------|--------------|-|
E|---------------------------------|--------------|-|

Enjoy!!!

| /  slide up
| \  slide down
| h  hammer-on
| p  pull-off
| ~  vibrato
| +  harmonic
| x  Mute note
===============================================================================
Tap to rate this tab
 
# A B C D E F G H I J K L M N O P Q R S T U V W X Y Z