Song name
# A B C D E F G H I J K L M N O P Q R S T U V W X Y Z

Misc Computer Games - Donkey Kong Country - Forest Frenzy tab

----------------------------------------------------------------------------
	Donkey Kong Country Forest Frenzy- Misc Computer Games
----------------------------------------------------------------------------

Tabbed by:aziz razavi
Email:azizrazavi@hotmail.com

Tuning:Standard

  baseline(background)       main
e|-------------------------|---------13-12-----------------15-13---------|--|
B|-------------------------|-15-13-15-----15-13-15-15-13-15-----15-13-15-|--|
G|-------------------------|---------------------------------------------|--|
D|-------------------------|---------------------------------------------|--|
A|-------------------------|---------------------------------------------|--|
E|-0-0-0-0-0-0-0-0-0-0-0-0-|---------------------------------------------|--|

e|---------------------2-2-3-2-0--2-2-3-2-0----------1-3-----5-3-5----------|
B|-1-3-1-3-1-3-1-3-1-3-3-3-3-3-3--3-3-3-3-3-3-1-3-1-3---3-3-1-----3-1-3-1-3-|
G|--------------------------------------------------------------------------|
D|--------------------------------------------------------------------------|
A|--------------------------------------------------------------------------|
E|--------------------------------------------------------------------------|

e|-1-3-10-8-------------------16-15-----------------18-16-------------------|
B|----3----10-8-6-6-8-18-16-18-----18-16-18-18-16-18-----18-16-18-4-6-4-6-4-|
G|-------------------7------------------------------------------------------|
D|--------------------------------------------------------------------------|
A|--------------------------------------------------------------------------|
E|--------------------------------------------------------------------------|

e|--------------------4-6-----8-6-8---------4-6-13-11-----------------------|
B|-6-4-6-4-6-6-4-6-4-6---6-6-4-----6-4-6-4-6---6-----13-11-9-9-11---10-8-10-|
G|---------------------------------------------------------------10---------|
D|--------------------------------------------------------------------------|
A|--------------------------------------------------------------------------|
E|--------------------------------------------------------------------------|

e|-8-7---------------10-8--------|-|
B|----10-8-10-10-8-10----10-8-10-|-|
G|-------------------------------|-|
D|-------------------------------|-|
A|-------------------------------|-|
E|-------------------------------|-|

Enjoy!!!!

| /  slide up
| \  slide down
| h  hammer-on
| p  pull-off
| ~  vibrato
| +  harmonic
| x  Mute note
===============================================================================
Tap to rate this tab
# A B C D E F G H I J K L M N O P Q R S T U V W X Y Z