Song name
# A B C D E F G H I J K L M N O P Q R S T U V W X Y Z

Misc Computer Games - Legend Of Zelda - Clock Town tab

Legend Of Zelda: Majora's Mask
Clock Town Theme
Standard Tuning (EADGBe)

Arpeggio's used in the Day 3 version of the song:
e|-------------------------------------------------|
B|-------3-----------2-----------0-----------2-----|
G|-----2---2-------2---2-------2---2-------2-----2-|
D|---4-------4---2-------2---2-------2---4-----4---|
A|-5-----------4-----------2-----------4-----------|
E|-------------------------------------------------|

Main Melody:
e|----10-9-7-5-7--3--5--0-5-3-0-3--5-2--|----10-9-7-5-7--3--5-3-0-3--2---------|
B|--------------------------------------|------------------------------3-------|
G|-7------------------------------------|-7------------------------------------|
D|--------------------------------------|--------------------------------------|
A|--------------------------------------|--------------------------------------|
E|--------------------------------------|--------------------------------------|

e|----10-9-7-5-7--3--5--0-5-3-0-3--5-2--|----10-9-7-5-7--3--5-3-0-2-3--0-------|
B|--------------------------------------|--------------------------------3-----|
G|-7------------------------------------|-7------------------------------------|
D|--------------------------------------|--------------------------------------|
A|--------------------------------------|--------------------------------------|
E|--------------------------------------|--------------------------------------|

Second Melody:
e|------------0-------3-2-3-2---0-------|------------0-------3-2-3-2-----------|
B|-3--3-3-2-3----2------------2----2----|-3--3-3-2-3----2------------2--3------|
G|-----------------2-----------------2--|-----------------2--------------------|
D|--------------------------------------|--------------------------------------|
A|--------------------------------------|--------------------------------------|
E|--------------------------------------|--------------------------------------|

e|------------0-------3-2-3-2---0-------|------------0-------3-2-3-2-----------|
B|-3--3-3-2-3----2------------2----2----|-3--3-3-2-3----2------------2--3------|
G|-----------------2-----------------2--|-----------------2--------------------|
D|--------------------------------------|--------------------------------------|
A|--------------------------------------|--------------------------------------|
E|--------------------------------------|--------------------------------------|

Interlude Section (this is only on the Day 1 and 2 versions of the song):
e|--------------------------|--------------------------|
B|--------------------------|--------------------------|
G|--4-----2-----------------|--4-----2-----------------|
D|--------------5-----4-----|------------5--4-----2----|
A|--------------------------|--------------------------|
E|--------------------------|--------------------------|

e|--------------------------|--------------------------|
B|--------------------------|--------------------------|
G|--4-----2-----7-----6-----|--6-------5-------4-------|
D|--------------------------|--------------------------|
A|--------------------------|--------------------------|
E|--------------------------|--------------------------|

Enjoy!
Tap to rate this tab
# A B C D E F G H I J K L M N O P Q R S T U V W X Y Z