Song name
# A B C D E F G H I J K L M N O P Q R S T U V W X Y Z

Misc Computer Games - Legend Of Zelda - Deku Palace tab

Legend Of Zelda: Majora's Mask
Deku Palace Theme
Standard Tuning (EADGBe)

Intro (only used in the orchestrated version of this song - not in the original):
e|-------5-7--8--7--5-------------|--------------------------------|
B|-5-7-8---------------8-----7--8-|-10-------------8--7------------|
G|--------------------------------|------9----7-----------9--7--9--|
D|--------------------------------|--------------------------------|
A|--------------------------------|--------------------------------|
E|--------------------------------|--------------------------------|

Main Melody:
e|----7-8-7--5----5----------|------5--------------------|
B|-5------------8---8-7-5--5-|-5--8---8--7--5-7---5----5-|
G|---------------------------|------------------7--------|
D|---------------------------|---------------------------|
A|---------------------------|---------------------------|
E|---------------------------|---------------------------|
                                                          
e|----7-8-7--5----5----------|-------5-------------------|
B|-5------------8---8-7-5--5-|-5-7-8---8--7--5---5-------|
G|---------------------------|-----------------7---------|
D|---------------------------|---------------------------|
A|---------------------------|---------------------------|
E|---------------------------|---------------------------|

Second Melody:
e|-10-------7-8-10-8-7--7----|-10-------7-8-10-7---------|
B|----10-10---------------8--|----10-10------------------|
G|---------------------------|---------------------------|
D|---------------------------|---------------------------|
A|---------------------------|---------------------------|
E|---------------------------|---------------------------|
                                                          
e|-10-------7-8-10-8-7-------|---------------------------|
B|----10-10------------8--8--|-10---8-7------------------|
G|---------------------------|----------9---11-7-9-------|
D|---------------------------|---------------------------|
A|---------------------------|---------------------------|
E|---------------------------|---------------------------| 

Interlude Section:
e|---------------------------|---------------------------|
B|---------------------------|---------------------------|
G|---------------------------|---------------------------|
D|-4----4----4----2--5--4----|-4----4----2---------------|
A|---------------------------|----------------5--4--2----|
E|---------------------------|---------------------------|

e|---------------------------|---------------------------|
B|---------------------------|---------------------------|
G|---------------------------|---------------------------|
D|-4----4----4----2--5--4----|-4----4----2---------------|
A|---------------------------|----------------5--4--2----|
E|---------------------------|---------------------------|

Enjoy!
Tap to rate this tab
# A B C D E F G H I J K L M N O P Q R S T U V W X Y Z