Guitaretab - guitar tabs
Song name
# A B C D E F G H I J K L M N O P Q R S T U V W X Y Z

Misc Computer Games - Guitar Battle Vs Tom Morello tab

----------------------------------------------------------------------------
	       Guitar Battle Vs Tom Morello - Tom Morello
----------------------------------------------------------------------------
Tabbed by:
howie_carman

Hi everyone, I've tried to find if someone tabbed this out, but no luck. Instead, I've
to try and tab it out. For just about every bar there is going to be a description of
effects are being used.


Killswitch, and you are using a metal slide on the strings, I'm not sure the proper
name of it. x will represent to flick the killswitch off and on

Tom Morello                                                   x2
----------------------------------------------------------------|
----------------------------------------------------------------|
--5/11---x-x---5/11--x---5/11---x-x-x---5/11\5/12---------------|
--5/11---x-x---5/11--x---5/11---x-x-x---5/11\5/12---------------|
--5/11---x-x---5/11--x---5/11---x-x-x---5/11\5/12---------------|
--5/11---x-x---5/11--x---5/11---x-x-x---5/11\5/12---------------|

Tom actually does this part by getting th feedback from the speaker, and changes
the intonation with his whammy bar, and uses killswitch as well. It's the same
technique for the "Sleep Now In The Fire" solo. I have actually found the note
on the guitar where it sounds the similar. Do which ever is easier.

You                                                                 x2
---16-killswitch notes-----12--12-12-killswitch notes-----------------|
----------------------------------------------------------------------|
----------------------------------------------------------------------|
----------------------------------------------------------------------|
----------------------------------------------------------------------|
----------------------------------------------------------------------|

Once again, killswitch with metal slide. I'm not going to indicate where to
killswitch.

Tom
-------------------------------------------------------------------|
-------------------------------------------------------------------|
--/15---12\9/12\9/12\9--9--9--9---/15---12\9/12\9/12\9--9--9/17----|
--/15---12\9/12\9/12\9--9--9--9---/15---12\9/12\9/12\9--9--9/17----|
--/15---12\9/12\9/12\9--9--9--9---/15---12\9/12\9/12\9--9--9/17----|
--/15---12\9/12\9/12\9--9--9--9---/15---12\9/12\9/12\9--9--9/17----|

More "Sleep now in the Fire" type soloing, if you want to pick the note, use your
whammy bar to change the intonation.
You
--15-15---15brb--15brb----15-15-15brb-15brb--15--15--15brb-15brb--17b-r-15--|
----------------------------------------------------------------------------|
----------------------------------------------------------------------------|
----------------------------------------------------------------------------|
----------------------------------------------------------------------------|
----------------------------------------------------------------------------|

Tom
----------------------------------------------------------------------------|
----------------------------------------------------------------------------|
--It's just sliding your fingers up and down with wah and killswitch.-------|
----------------------------------------------------------------------------|
----------------------------------------------------------------------------|
----------------------------------------------------------------------------|

You
----------------------------------------------------------------------------|
----------------------------------------------------------------------------|
--Again, just sliding your fingers up and down with killswitch without wah.
----------------------------------------------------------------------------|
----------------------------------------------------------------------------|
----------------------------------------------------------------------------|


Toggle killswitch very fast on feedback and use whammy pedal to change the note.
Tom
----------------------------------------------------------------|
----------------------------------------------------------------|
----------------------------------------------------------------|
----------------------------------------------------------------|
----------------------------------------------------------------|
----------------------------------------------------------------|

You
Whammy pedal completely toed to the max.
-----------------------------------------------------------|
-----------------------------------------------------------|
-------/7-----/5--4--2-p-0-2p0-----4/5--4--2-p-0--2p0------|
--0-(let ring the whole time)------------------------------|
-----------------------------------------------------------|
-----------3--------------------3--------------------------|

Tom
----------------------------------------------------------------------------|
-14b----14b---14b-14b-14--14b~------14--------14--------14------------------|
-14b----14b---14b-14b-----14b~---12-14p12-12--14p12-12--14p12-----12~-------|
---------------------------------------------------------------14-----------|
----------------------------------------------------------------------------|
----------------------------------------------------------------------------|

Killswitch and wah pedal
You
------------------------------------------|
------------------------------------------|
---12-11-12-11-12---11-----12-----17b-----|
---12-11-12-11-12---11-----12-----17b-----|
------------------------------------------|
------------------------------------------|

Tom			      x3      then
-------------------15-------------|---17b-17b-17b-17b~---|
---17-15-17-15-17-----17-15-------|----------------------|
----------------------------------|----------------------|
----------------------------------|----------------------|
----------------------------------|----------------------|
----------------------------------|----------------------|

Wah and Killswitch
You
-----------------------------------------------|
-----------------------------------------------|
--12--11--12---12--11--15---12--11--12----15b--|
--12--11--12---12--11--15---12--11--12----15b--|
-----------------------------------------------|
-----------------------------------------------|

Tom                                            x2
----------19-19-19---17-17-17---15--14-14-------|
-----/17----------------------------------------|
------------------------------------------------|
------------------------------------------------|
------------------------------------------------|
------------------------------------------------|

Killswitch and wah
You
----------------------------------------------------|
----------------------------------------------------|
--9--7-----5------4-------2--0--2------4--------5b--|
--9--7-----5------4-------2--0--2------4--------5b--|
----------------------------------------------------|
----------------------------------------------------|

Alternate pick each note 3 times.
Tom
------12-15-14-12------------------------------|
----15------------15-13-12---------------------|
---------------------------14-12-11-12-11------|
-----------------------------------------------|
-----------------------------------------------|
-----------------------------------------------|

Wah
You
---------------------------------------------|
---------------------------------------------|
--11----12----13----14----15----16----17b~---|
--11----12----13----14----15----16----17b~---|
---------------------------------------------|
---------------------------------------------|

Whammy Pedal
Tom
------------------------------------------------|
------------------------------------------------|
------------------------------------------------|
---14~------12~---------------------------------|
-----------------------14-----12----------------|
-------------------------------------15b~-------|
[ Tab from: http://www.guitaretab.com/m/misc-computer-games/113021.html ]
Killswitch, sliding with fingers
You
--------------------------------------|
--------------------------------------|
--------------------------------------|
--------------------------------------|
--------------------------------------|
--------------------------------------|

Whammy Pedal
Tom
-----------------------------12~---|
-------------------12---15---------|
---12~------14~--------------------|
-----------------------------------|
-----------------------------------|
-----------------------------------|

Killswitch, sliding with fingers
You
-----------------------------|
-----------------------------|
-----------------------------|
-----------------------------|
-----------------------------|
-----------------------------|

Tom			x3
-----|--17p15p14----------|--17p15p14-15-17p15p14--|
--/15|-----------17p15p13-|------------------------|
-----|--------------------|------------------------|
-----|--------------------|------------------------|
-----|--------------------|------------------------|
-----|--------------------|------------------------|

-----------------------------14h15h17b--15--17--15-----|
-17p15p13-----------13h15h17-----------------------17~-|
----------16p14h16-------------------------------------|
-------------------------------------------------------|
-------------------------------------------------------|
-------------------------------------------------------|

You				  x4
------15h1h19p17p15----------------|--19-19-19-19~---|
--/19---------------19p17p15h17h19-|-----------------|
-----------------------------------|-----------------|
-----------------------------------|-----------------|
-----------------------------------|-----------------|
-----------------------------------|-----------------|

Tom			x3                                               x4
---------19p17p15----------|--15h17h19p17p15--------------------------------|
--/17-------------19p17p15-|----------------19p17p15---------15h17h19-------|
---------------------------|-------------------------17p16h17---------------|
---------------------------|------------------------------------------------|
---------------------------|------------------------------------------------|
---------------------------|------------------------------------------------|

-----15h17h19-|-19b--|
--------------|------|
--------------|------|
--------------|------|
--------------|------|
--------------|------|

Whammy pedal and alternate picking
You
--------------------------------------------------|
--15-15-15-15-15-15-15-15-15-15-15-15-15b-b-b-b---|
-----/--\-/-\-/-\-/-\---/--\--/--\--/-------------|
--whammy-pedal-tilt-------------------------------|
--------------------------------------------------|
--------------------------------------------------|

Whammy Pedal, Have it maxed first, then slowly tilt it back
Tom
-----------------------|
-----------------------|
---0-let-ring----------|
---0-let-ring----------|
-----------------------|
-----------------------|

You now have to set your whammy pedal to harmonize up a perfect 5th do this next part

--does this x2, then end with this-|-after playing this---------------------|
-----------------------------------|----------------------------------------|
-----------------------------------|----------------------------------------|
-----------------------------------|----------------------------------------|
-----------9h10h12--------------9--|-----------9h10h12----------9h10h12-----|
---8h10h12--------------8h10h12----|--8h10h12----------8h10h12--------------|


--does this x2, then end with this-|-after playing this---------------------|
-----------------------------------|----------------------------------------|
-----------------------------------|----------------------------------------|
----------9h10h12---------9--------|---------9h10h12---------9h10h12--------|
--9h10h12---------9h10h12----------|--9h10h12--------9h10h12----------------|
-----------------------------------|----------------------------------------|


--does this x2, then end with this-|-after playing this---------------------|
-----------------------------------|----------------------------------------|
----------9h11h12----------9-------|----------9h11h12----------9h11h12------|
--9h10h12---------9h10h12----------|--9h10h12----------9h10h12--------------|
-----------------------------------|----------------------------------------|
-----------------------------------|----------------------------------------|

--does this x2, then end with this-|-after playing this---------------------|
-----------------------------------|----------------------------------------|
----------12h14h16----------12-----|----------12h14h16----------12h14h16----|
--12h14h16---------12h14h16--------|--12h14h16----------12h14h16------------|
-----------------------------------|----------------------------------------|
-----------------------------------|----------------------------------------|

				x2
---------------------------------|
---------------------------16----|
------------------16h17h19-------|
-12h14h16-16h17h19---------------|
---------------------------------|
---------------------------------|

----------------------------------------------------------------------------|
---------------------------16h17h19----------16h17h19------------16---------|
------------------16h17h19----------16h17h19----------16h17h19--------------|
-12h14h16-16h17h19----------------------------------------------------------|
----------------------------------------------------------------------------|
----------------------------------------------------------------------------|

				x2
----------15h17h19-------------|
-15h17h19----------15h17h19----|
----------------------------16-|
-------------------------------|
-------------------------------|
-------------------------------|

----------15h17h19-----------------------------15h17h19---------------------|
-15h17h19----------15h17h19-----------15h17h19----------15h17h19------------|
----------------------------16h17h19------------------------------16--------|
----------------------------------------------------------------------------|
----------------------------------------------------------------------------|
----------------------------------------------------------------------------|

				x2
-------------------15h17h19----|
----------15h17h19-------------|
-16h17h19----------------------|
-------------------------------|
-------------------------------|
-------------------------------|


-------------------15h17h19----------15h17h19-----------15h17h19----------|
----------15h17h19----------15h17h19----------15h17h19-----------15-------|
-16h17h19-----------------------------------------------------------------|
--------------------------------------------------------------------------|
--------------------------------------------------------------------------|
--------------------------------------------------------------------------|

		x7  end with
------------15h17h19---------19-19-|
---15h17h19------------------------|
-----------------------------------|
-----------------------------------|
-----------------------------------|
-----------------------------------|

Then you dive bomb with your whammy bar, not pedal.

Now turn on the wah with the perfect 5th on your whammy pedal. You triplet each note
except the first bend. I may not have the notes in the exact order, but it close.

-0b-0-0-0-0-0--0-0-0-0-0-0-0--0-0-0-0--0---0-0-0-0-0-0---0---------------|
-5b-5-5-7-8-10-8-7-5-5-7-8-10-8-7-8-10-12-10-8-7-8-7-5---5---------------|
---------------------------------------------------------0---------------|
---------------------------------------------------------0---------------|
-------------------------------------------------------------------------|
-------------------------------------------------------------------------|

Let the last note feedback, face your amp, killswitch it while moving the whammy bar to
change intonation. After doing that for a while, divebomb and your done.

First tab I've ever done and probably the hardest I'll ever do. Have fun mastering this one.
Related for Guitar Battle Vs Tom Morello tab
Advertisement will be closed in 10 seconds