Song name
# A B C D E F G H I J K L M N O P Q R S T U V W X Y Z

Misc Computer Games - Crash Team - Racing Theme tab

-------------------------------------------------------------------------------
Intro theme for the legendary PlayStation game CRASH TEAM RACING
-------------------------------------------------------------------------------
Tabbed by: Juissi
Email: jussi.siiriainen@luukku.com

Tuning: Standard

I have left out the instruments of the very beginning because it would make this tab too 
and the melodies are quite difficult. This is the main menu music. Enjoy. I have also 
tabs for bass line if someone's interrested.

Trumpet   #     #     #    (break)   #     #     #
e|---------------------------------------------------------------------------|
B|---------------------------------------------------------------------------|
G|------------------------19-------------------------------------------------|
D|-----17----19----21-------------19----21----19----17-----------------------|
A|---------------------------------------------------------------------------|
E|---------------------------------------------------------------------------|

Guitar                                                   %            %   %
e|---------------------------------------------------------------------------|
B|---------------------------------------------------------------------------|
G|--------------------------------------------------------15-16--------------|
D|--------------------------------------------------17----------17-15--14--12|
A|---------------------------------------------------------------------------|
E|---------------------------------------------------------------------------|
   %                   %   %   %         %   %  % (break)
e|---------------------------------------------------------------------------|
B|---------------12-10--12----------------10-----8---------------------------|
G|---------12----12-----12--12-----14-12--10-----7---------------------------|
D|----12-14--14-------------12--14-15---------9------------------------------|
A|--14--------------------------15-----------10------------------------------|
E|---------------------------------------------------------------------------|

Trumpet   #     #     #    (break)   #     #     #
e|---------------------------------------------------------------------------|
B|---------------------------------------------------------------------------|
G|------------------------19-------------------------------------------------|
D|-----17----19----21-------------19----21----19----17-----------------------|
A|---------------------------------------------------------------------------|
E|---------------------------------------------------------------------------|


Guitar                                                    %       %
e|---------------------------------------------------------------------------|
B|--------------------------------------------------11-12--------------15-13-|
G|--------------------------------------------------------12-----------16-14-|
D|----------------------------------------------------------14-12-14---------|
A|---------------------------------------------------------------------------|
E|---------------------------------------------------------------------------|
   %   %              %%    %%    %        %   %  %   (brake)
e|---------------------------------------------------------------------------|
B|-----------------------------------15-13-----------------------------------|
G|-12--------------12----12----14----16-14--12------12-----------------------|
D|-12---12-14-12---12----12----14-----------12--14--12-----------------------|
A|------14-15-14--------------------------------15---------------------------|
E|---------------------------------------------------------------------------|


If you have only acoustic guitar, you can play by this.
         %         %   %  %               %  %  %       %  %  % (brake)
e|---3----6-7--------------------3----7-5--7--------5-3--5-------------------|
B|------------8-6---5---3----3-5---5--8----8--8--5--6----6--5--8-------------|
G|-------------------------4------------------7--5----------5--7-------------|
D|---------------------------------------------------------------------------|
A|---------------------------------------------------------------------------|
E|---------------------------------------------------------------------------|
        %      %         %   %        %%  %%  %        %  %  % (break)
e|--6-7------------10-8--------------3---3---5---10-8------------|
B|-------8------5--12-10--8---3-5-3--3---3---5---12-10--8--5--8--|
G|---------9-7------------7---4-5-4---------------------7--5--7--|
D|---------------------------------------------------------------|
A|---------------------------------------------------------------|
E|---------------------------------------------------------------|

Repeat this as long as you want. Tip: Start slowly. Learn the fingering and the tabs 
you add speed. Once you learn the pattern, then you can add speed and amaze your friends :)

| % eighth rest
| # sixteenth rest

===============================================================================
Tap to rate this tab
# A B C D E F G H I J K L M N O P Q R S T U V W X Y Z