Song name
# A B C D E F G H I J K L M N O P Q R S T U V W X Y Z

Misc Computer Games - Kingdom Hearts 2 - Roxas Theme tab

okie! this is my first tab..ahem! i hope you guys like it, if you guys have any other
then please add to this. Give me some feed back or suggestion. you can contact me
at myspace.com/b0ne_breaker

Roxas Theme
Capo 10 ..however, it still sounds nice without capo.

Chords: Em,D,C,G,C,D

I think for the begining, just pick the Em chord 4 x i think. yeah listen to the song on
heh. but yeah. enjoy!


   Em         D          C         G
e--3-----3----2----------0--------------3------------|
b------0----------3--------3---1---3------3----------|
g---------------2---2-----------------0--------------|
d----2--------0--------------------------------------|
a----------------------------------------------------|
E--0-------------------------------3-----------------|

   C         G        C       D
e--------0-------3------------0-2----------------------|
b--1---3-----3-----3--1-0-1-3--------------------------|
g----0---------0---------------------------------------|
d------------------------------------------------------|
a--3------------------3--------------------------------|
E------------3----------------0------------------------|

   G          D          C         G
e--3-----3----2----------0--------------3------------|
b------0----------3--------3---1---3------3----------|
g---------------2---2-----------------0--------------|
d-------------0--------------------------------------|
a----------------------------------------------------|
E--3-------------------------------3-----------------|

   C         G        C       D
e--------0-------3------------0-2----------------------|
b--1---3-----3-----3--1-0-1-3--------------------------|
g----0---------0---------------------------------------|
d------------------------------------------------------|
a--3------------------3--------------------------------|
E------------3----------------0------------------------|


e--3-5-7-3-5-3-2-0--------------------------------------------|
b------------------0-3----------------------------------------|
g-------------------------------------------------------------|
d-------------------------------------------------------------|
a-------------------------------------------------------------|
E-------------------------------------------------------------|

and then just play it over again =D

give me some feed back please =] at myspace.com/b0ne_breaker
Tap to rate this tab
# A B C D E F G H I J K L M N O P Q R S T U V W X Y Z