Song name
# A B C D E F G H I J K L M N O P Q R S T U V W X Y Z

Misc Computer Games - Yoshi - Rail Lifts tab

 W                   W                    S  S  S  S  E   S  E   E   S  Q      
E||-------------------|-------------------|--------------15---------12------------|
B||-------------------|-------------------|---------------------------------------|
G||-------------------|-------------------|--12-12-12-12-----12-12------12-14~----|
D||-------------------|-------------------|---------------------------------------|
A||-------------------|-------------------|---------------------------------------|
E||-------------------|-------------------|---------------------------------------|


  T S Q.     S.  S S  S  E.   T T    E   T  T  T  T  E  E   E  S  E   S  E   
----------------13----------------|-----------------------------------------|
---------------------11-12~---L---|-----12-12-12-12-10-----12----10--12-10--|
--L-------------------------------|-----12-12-12-12-10-----12----10--12-10--|
----------------------------------|-----------------------------------------|
----------------------------------|-----------------------------------------|
----------------------------------|-----------------------------------------|


  E   T  T  T  T  E  E   E  S  E   S  E      S  S  S  S  E   S  E   E   S  Q      
-----------------------------------------|--------------15---------12------------|
-----12-12-12-12-10-----12----10--12-10--|---------------------------------------|
-----12-12-12-12-10-----12----10--12-10--|--12-12-12-12-----12-12------12-14~----|
-----------------------------------------|---------------------------------------|
-----------------------------------------|---------------------------------------|
-----------------------------------------|---------------------------------------|


  T S Q.     S.  S S  S  E.   T T    E   T  T  T  T  E  E   E  S  E   S  E   
----------------13----------------|-----------------------------------------|
---------------------11-12~---L---|-----12-12-12-12-10-----12----10--12-10--|
--L-------------------------------|-----12-12-12-12-10-----12----10--12-10--|
----------------------------------|-----------------------------------------|
----------------------------------|-----------------------------------------|
----------------------------------|-----------------------------------------|


  S E  S E  S Q.     S S  S    S S S S Q    S T S S T S T  S T S  
----------------------------|------------------------------------|
--8----8----8---------------|--8-8-8-8------8---8-8---8---10---8-|
--9----9----9----------9-10-|------------------------------------|
----------------------------|------------------------------------|
----------------------------|------------------------------------|
----------------------------|------------------------------------|


  Q     S. H        T S S     S  S  S  S Q     S T  S  S T  S T  S T  S  
--------------------------|---------------------------------------------|
--6~----L-------------6-8-|--10-10-10-10------10---10-10---10---12---10-|
--------------------------|---------------------------------------------|
--------------------------|---------------------------------------------|
--------------------------|---------------------------------------------|
--------------------------|---------------------------------------------|


  Q     S. H        T S  S    S S S S E  S S S S S S E  S S  
---------------------------|--7-7-7-7----5-6-7-7-7-7----6-7-|
--8~----L-------------9-10-|--------------------------------|
---------------------------|--------------------------------|
---------------------------|--------------------------------|
---------------------------|--------------------------------|
---------------------------|--------------------------------|


  S S S S S S S S  S E.  S S  S S     S S  S S  S  S  S S Q    S S S S  
--8-8-8-8---8-7-8-10-----8---10---|--12---12---10-12-10-8------7-8-7-5-|
----------------------------------|------------------------------------|
----------------------------------|--12---12---10-12-10-9------7-9-7-5-|
----------------------------------|------------------------------------|
----------------------------------|------------------------------------|
----------------------------------|------------------------------------|


  Q    S S S S E.   Q    S    W                   H.           S S S S  
-------3-5-3-1-----10------|-------------------|-----------------------|
---------------------------|-------------------|---------------5---5---|
-------4-5-4-2-----10------|-------------------|-----------------------|
---------------------------|-------------------|-----------------------|
---------------------------|-------------------|-----------------------|
---------------------------|-------------------|-----------------------|


  S S E  S S S S E   S  S  S  S  E      S  E   E   S  Q     S. Q    T  
--------------------------------15--|---------12----------------------|
--3-5----5---3-5--------------------|---------------------------------|
--------------------12-12-12-12-----|--12-12------12-14~----L---------|
------------------------------------|---------------------------------|
------------------------------------|---------------------------------|
------------------------------------|---------------------------------|


  E.   S S  S  E.   T E  T  T  T  T  T  E     E   E  S  E   S  E  S E  S E   
------13-----------------------------------|--------------------------------|
-----------11-12~---L------12-12-12-12-10--|-----12----10--12-10--8----8----|
---------------------------12-12-12-12-10--|-----12----10--12-10--9----9----|
-------------------------------------------|--------------------------------|
-------------------------------------------|--------------------------------|
-------------------------------------------|--------------------------------|


  S H        Q    E  S   
-----------------------||
--8--------------------||
--9--------------------||
-----------------------||
-----------------------||
-----------------------||

Tap to rate this tab
# A B C D E F G H I J K L M N O P Q R S T U V W X Y Z