Song name
# A B C D E F G H I J K L M N O P Q R S T U V W X Y Z

Misc Computer Games - Sonic The Hedgehog 3 - Ice Cap Zone tab

this again was only on power tab so I decided to tab this one

Standard tuning

Gtr.1
e|---------------------------------------------------------------|
B|-10--------8---------10--------6---------10--------8---------6-|
G|-10--------8---------10--------7---------10--------8---------7-|
D|-8---------8---------8---------8---------8---------8---------8-|
A|---------------------------------------------------------------|
E|---------------------------------------------------------------|
 |
 | Gtr.2
e|---------------------------------|
B|---------------------------------|
G|---------------------------------|
D|---------------------6---------5-|
A|---------------------------------|
E|---------------------4---------3-|

Gtr.1
e|--------20-----18--|----------------|--------20-----18-----------|
B|-------------------|---------18-----|----------------------------|
G|-17----------------|-19--20---------|-17----------------------19-|
D|-------------------|-------------20-|----------------------------|
A|-------------------|----------------|----------------------------|
E|-------------------|----------------|----------------------------|
 |
 | Gtr.2 (W/ Pitch Shifter +1 octave + Delay)
e|-----8--------8--------8--------8---------10----------10----------------------------|
B|---8---8----8---8----9---9----9---9----11----11----11----11----11----11----11----11-|
G|------------------------------------------------------------------12----------12----|
D|-10------10-------10-------10-------12----------12----------12----------12----------|
A|------------------------------------------------------------------------------------|
E|------------------------------------------------------------------------------------|

------10----------10----------10----------10----|
---11----11----11----11----11----11----11----11-|
------------------------------------------------|
12----------12----------12----------12----------|
------------------------------------------------|
------------------------------------------------|


 |
 | Gtr.3
e|------------------------------------------------|-----|
B|------------------------------------------------|-----|
G|-8-----------------5----------------7-----------|-3---|
D|------------------------------------------------|-----|
A|-6-----------------3----------------5-----------|-1---|
E|------------------------------------------------|-----|
Tap to rate this tab
# A B C D E F G H I J K L M N O P Q R S T U V W X Y Z