Song name
# A B C D E F G H I J K L M N O P Q R S T U V W X Y Z

Misc Computer Games - Vigilante 8 Theme tab

hi this is what i have of the funky theme 
to the classic nintendo 64 video game "VIGILANTE 8" i got the bass and the synthesizer parts!


the bass goes

G|---------------|----------------|-------------|----------------|
D|---------------|----------------|-------------|----------------|
A|--4--4-------4-|-2--2--0--------|-4--4------4-|-2--2--0--------|
E|--------2-h4---|----------2--2--|------2-h4---|----------2--2--|

the little octaves part is faster!
G|---------------|-----2---3---4---5-|-------------|---------------|
D|---------------|-------------------|-------------|---------------|
A|--4--4-------4-|-x-0---1---2---3---|-4--4------4-|-2--2--0-------|
E|--------2-h4---|-------------------|------2-h4---|---------2--2--|

and you repeat that endlessly until the synth(guitar) goes:
e|-----------------------------------------|
b|----------------------17~~-14~~~~~~~~~---|
g|--18~~-16--14----------------------------|
d|--------------16~~~~~--------------------|
a|-----------------------------------------|
E|-----------------------------------------|

bass:
G|---------------|----------------|-------------|----------------|
D|---------------|----------------|-------------|----------------|
A|--4--4-------4-|-2--2--0--------|-4--4------4-|-2--2--0--------|
E|--------2-h4---|----------2--2--|------2-h4---|----------2--2--|

and you keep doing this stuff for as long as you want
i know this is short but that's all there is.
"ooh-ooh"

-Bert
Tap to rate this tab
# A B C D E F G H I J K L M N O P Q R S T U V W X Y Z