Song name
# A B C D E F G H I J K L M N O P Q R S T U V W X Y Z

Misc Computer Games - Runescape Theme tab

Help us improve GuitareTab! Take a short survey!
-------------------------------------------------------------------------------
		RuneScape main theme - Misc computer games
-------------------------------------------------------------------------------
Tabbed by:Bloody Dali
Email:Bloodydali@gmail.com

Tuning:Standard


e-----------------1---0---------------|
B-----3------------------1---3--------|
G-0-----------------------------------|
D-------------------------------------|
A-------------------------------------|
E-------------------------------------|

e------------------------------------------1--0------------------------|
B------3---------------------------3-------------1--3------------------|
G---0------3-2-0-3--2-0-------0----------------------------------------|
D---------------------------0-----------------------------3-2----0-----|
A--------------------------------------------------------------3-------|
E----------------------------------------------------------------------|

e--------------------------------------------------1-0--1-0--1-0-------|
B------------------------------------------------------3----3-----3-1--|
G-----0---3-2-0-3--2-0------------0------------------------------------|
D---------------------------------------3-2-0--------------------------|
A--3--------------------------3---------------3------------------------|
E--------------------------3-------------------------------------------|
Related for Runescape Theme tab