Song name
# A B C D E F G H I J K L M N O P Q R S T U V W X Y Z

Misc Computer Games - Wild Arms 5 - The Dry Wind Blows Over You tab

The main stuff for Masato Kouda's "The Dry Wind Blows Over You" from Wild ARMs V: The 
Vanguard. It should be pretty accurate.

h - hammer on
p - pull of


-|-----------------|-----------------|-----------------|-----------------|
-|-----------------|-----------------|-----------------|-----------------|
-|-----------------|-----------------|-----------------|-----------------|
-|-----------------|-----------------|----0h3p0--------|-----------------|
-|----0h3p0--------|----0h3p0--------|0h3-------3-5----|----0h3p0--------|
-|0h3-------3-5----|0h3-------3-5----|-----------------|0h3-------3-5----|

-|-----------------|-----------------|-----------------|-----------------|
-|-----------------|-----------------|-----------------|-----------------|
-|-----------------|-----------------|-----------------|-----------------|
-|-----------------|-----------------|-----------------|-----------------|
-|7-10-12-5-5------|3-5-7-0-0--------|2---3-2----------|-----------------|
-|-----------------|-----------------|-----------------|5-3-3h5p3h5p3-5--|

-|-----------------|-----------------|----------------------|
-|-----------------|-----------------|----------------------|
-|-----------------|-----------------|----------------------|
-|-----------------|-----------------|----------------------|
-|-----------------|7-5-7-5----------|--5-7-7-7-10-9-9-7-5-7|
-|3-5-5-5-7-8-8-8--|--------8-5------|8---------------------|
^^^^^^^^^^^^^^^^^^^^^^^Palm mute goes here.^^^^^^^^^^^^^^^^^^


-|-----------------|-----------------|---------------------------|
-|-----------------|-----------------|---------------------------|
-|-----------------|-----------------|---------------------------|
-|--5-7-7-5--------|-----------------|---------------------------|
-|7---------7-5----|--5-7-7----------|--------7-5----------------|
-|-----------------|8-------8-5------|3-5-5-5-----7-3-3h5p3h5p3-5|
Tap to rate this tab
 
# A B C D E F G H I J K L M N O P Q R S T U V W X Y Z