Song name
# A B C D E F G H I J K L M N O P Q R S T U V W X Y Z

Misc Computer Games - Metal Gear Solid Theme tab

By Boro777
Metal Gear Solid Main Theme - Guitar - No specific tuning


1st Half
E: ------------------------------------|
B: 5---3---1---3---5--------5---3------|
G: ---------------------2--------------|
D: ------------------------------------|
A: ------------------------------------|
e: ------------------------------------|


E: --------------5---3-----------------|
B: 1---3---5------------5---1---3------|
G: ------------------------------------|
D: ------------------------------------|
A: ------------------------------------|
e:  -----------------------------------|


E: -----5---8---7---8---10---8---5-----|
B: 5-----------------------------------|
G: ------------------------------------|
D: ------------------------------------|
A: ------------------------------------|
e: ------------------------------------|


E: 3---5---7---8---7---5---3---5-------|
B: ------------------------------------|
G: ------------------------------------|
D: ------------------------------------|
A: ------------------------------------|
e: ------------------------------------|

The theme is basically repeated but at a higher pitch of two frets higher

2nd Half
E: ------------------------------------|
B: 7---5---3---5---7---0---7---5-------|
G: ------------------------------------|
D: ------------------------------------|
A: ------------------------------------|
e: ------------------------------------|


E: --------------7---5-----------------|
B: 3---5---7------------7---3---5------|
G: ------------------------------------|
D: ------------------------------------|
A: ------------------------------------|
e:  -----------------------------------|


E: -----7---10---9---10---12---10---7--|
B: 7-----------------------------------|
G: ------------------------------------|
D: ------------------------------------|
A: ------------------------------------|
e: ------------------------------------|


E: 5---7---9---10---9---7---5---7------|
B: ------------------------------------|
G: ------------------------------------|
D: ------------------------------------|
A: ------------------------------------|
e: ------------------------------------|

This is my first tab and hope you enjoy learning this theme
Tap to rate this tab
# A B C D E F G H I J K L M N O P Q R S T U V W X Y Z