Guitaretab - guitar tabs
Song name
# A B C D E F G H I J K L M N O P Q R S T U V W X Y Z

Misc Computer Games - Sonic 3 - Act 2 Bosses tab

-------------------------------------------------------------------------------
Act 2 Bosses (Hard Rock Version)  Sonic the Hedgehog 3 (Video Game)
-------------------------------------------------------------------------------
Tabbed by: Bradley Chase


Tuning: EADGBE
Speed: 155

 Intro:x2
e|-------------------|
B|-------------------|
G|-------------------|
D|-2222222---3-----5-|
A|-2222222---3-----5-|
E|-0000000-----------|
PM--------|

Main Riff: x2
e|----------------------------------------|
B|----------------------------------------|
G|----------------------------------------|
D|-2~4-5-7-9-7-5-4-5-2-2-2----2-4-7-5-4-7-|
A|-------------------------2~-------------|
E|----------------------------------------|
[ Tab from: http://www.guitaretab.com/m/misc-computer-games/175865.html ]
Bridge:
e|-------------------------------------------------------------------------------|
B|-------------------------------------------------------------------------------|
G|-------------------------------------------------------------------------------|
D|-7-9-7-5------5------5------7------7------7------9------9-------12-10-9-10-9-5-|
A|---------7------7------7------9------9------9------10-----10-------------------|
E|-----------8------8-------------10-----10-------------12-----12----------------|

e|-------------------------------------------------------------------------------|
B|-------------------------------------------------------------------------------|
G|-------------------------------------------------------------------------------|
D|-7-9-7-5------5------5------7------7------7------9------9-------12-10-9-7-9-14~|
A|---------7------7------7------9------9------9------10-----10-------------------|
E|-----------8------8-------------10-----10-------------12-----12----------------|


| PM Palm Mute
| ~  vibrato
===============================================================================

Related for Sonic 3 - Act 2 Bosses tab