Song name
# A B C D E F G H I J K L M N O P Q R S T U V W X Y Z

Misc Computer Games - Resident Evil 3 - End Theme tab

-------------------------------------------------------------------------------
			     Resident Evil 3 End Theme
-------------------------------------------------------------------------------
Tabbed by:
Email:

Tuning:Standard


e|------------------------------------------------------------------------------------------|
B|------------------------------------------------------------------------------------------|
G|-----11--------11-----11/16----11---------9---9h11---9------8--9---9--11--b11------11--11-|
D|-/9--------/9-----------------------------------------------------------------------------|
A|------------------------------------------------------------------------------------------|
E|------------------------------------------------------------------------------------------|

e|---------------------------------------------------------------------------|
B|---------------------------------------------------------------------------|
G|---9--11---11/16---16~~~---------------------------------------------------|
D|---------------------------------------------------------------------------|
A|---------------------------------------------------------------------------|
E|---------------------------------------------------------------------------|

e|-----------------------------------------------------------------------------------------|
B|-----------------------------------------------------------------------------------------|
G|------4--9--11------------9--9--8--6--8--8--9-----------1--2--4--9\----------4--2--1-----|
D|---2-------------------------------------------6--------------------2~~~---2----------4--|
A|-----------------------------------------------------------------------------------------|
E|-----------------------------------------------------------------------------------------|

e|----------------------------------------------------------------------------------|
B|----------------------------------------------------------------------------------|
G|---/9-9-8-6-4--------9-----/9---11-----/11--13----/16---14---13h14p13--11-----16--|
D|-----------------/9-----9-----------9---------------------------------------------|
A|----------------------------------------------------------------------------------|
E|----------------------------------------------------------------------------------|

e|--------------------------------------------------------------------------------------------|
B|--------------------------------------------------------------------------------------------|
G|--------9-----/9---11------/11---13---/16--14---13h14p13--11---16-----------12h14h15---16---|
D|----/9-----9-----------9-------------------------------------------11h13h14-----------------|
A|--------------------------------------------------------------------------------------------|
E|--------------------------------------------------------------------------------------------|

e|---------------------------------------------------------------------------------------|
B|---------------------------------------------------------------------------------------|
G|-------16--14--13h14h13--11--b13r--11--9--8--6--8--9-9-------9--11--13---9---13--11----|
D|---14---------------------------------------------------------(9)-(9)-(9)-(9)----------|
A|---------------------------------------------------------------------------------------|
E|---------------------------------------------------------------------------------------|



e|------------------------------------------------------------------------------|
B|------------------------------------------------------------------------------|
G|--------9-----/9---11------/11---13---/16--14---13h14p13--11---16--------16---|
D|-----------9-----------9--------------------------------------------14--------|
A|------------------------------------------------------------------------------|
E|------------------------------------------------------------------------------|


e|-------------------------------------------------------------------------------------|
B|-------------------------------------------------------------------------------------|
G|-------------------------------------------------------------------------------------|
D|---14--13h14p13--11---b13r--11--9--8--6--8--9-9--------9---11---13---9----13--11-----|
A|--------------------------------------------------------(9)--(9)--(9)-(9)------------|
E|-------------------------------------------------------------------------------------|

e|-------------------------------/16h17p16---14---12---11---9---11---12--12--------|
B|---------------------------------------------------------------------------------|
G|-----------16--14--13--11--------------------------------------------------------|
D|---14--14------------------------------------------------------------------------|
A|---------------------------------------------------------------------------------|
E|---------------------------------------------------------------------------------|



e|-----12---14---16---12---16---14----------19-------19--17--16--14------11~~~------|
B|------(12)--(12)-(12)-(12)----------------------17--------------------------------|
G|----------------------------------------------------------------------------------|
D|----------------------------------------------------------------------------------|
A|----------------------------------------------------------------------------------|
E|----------------------------------------------------------------------------------|



| /  slide up
| \  slide down
| h  hammer-on
| p  pull-off
| ~  vibrato
| +  harmonic
| x  Mute note
===============================================================================
Tap to rate this tab
# A B C D E F G H I J K L M N O P Q R S T U V W X Y Z