Song name
# A B C D E F G H I J K L M N O P Q R S T U V W X Y Z

Misc Computer Games - Shin Megami Tensei Persona 4 - Ill Face Myself tab

 --------------------------------
| I'll Face Myself (Boss Battle) |
 --------------------------------
 Shoji Meguro, Atlus, 2008
 Shin Megami Tensei: Persona 4


 -----
| Key |
 -----
~ Vibrato


 -------
| Intro | 0:00 - 0:24
 -------

e |-------------------------------------|
B |-------------------------------------|
G |--5-5-8-7--7-6--6-5--5-4--3----------|
D |--5-5-8-7--7-6--6-5--5-4--3----------|
A |--3-3-6-5--5-4--4-3--3-2--1----------|
E |-------------------------------------|

e |-------------------------------------|
B |-------------------------------------|
G |--5-5-8-7--7-6--6-5--5-4~------------|
D |--5-5-8-7--7-6--6-5--5-4~------------|
A |--3-3-6-5--5-4--4-3--3-2~------------|
E |-------------------------------------| x4

e |-------------------------------------|
B |-------------------------------------|
G |--5-5----5-5----5-5----5-5-----------|
D |--5-5----5-5----5-5----5-5-----------|
A |--3-3----3-3----3-3----3-3-----------|
E |-------------------------------------|

 -------
| Verse | 0:25 - 1:00
 -------

e |-------------------------6~----------|
B |------8~---6~---------8~----6~-------|
G |--5-5----5------5-5------------------|
D |-------------------------------------|
A |-------------------------------------|
E |-------------------------------------|

e |-------------------------------------|
B |------8~---6~----4~--3-3-4-4~--------|
G |--5-5----5---------------------------|
D |-------------------------------------|
A |-------------------------------------|
E |-------------------------------------|

e |-------------------------6~----------|
B |------8~---6~---------8~----6~-------|
G |--5-5----5------5-5------------------|
D |-------------------------------------|
A |-------------------------------------|
E |-------------------------------------|

e |-------------------------------------|
B |------8~---6~----4~--3-3-1-1~--------|
G |--5-5----5---------------------------|
D |-------------------------------------|
A |-------------------------------------|
E |-------------------------------------| x2

 --------
| Chorus | 1:01 - 1:20
 --------

e |---------------------------------------------------|
B |-----13----------15----------16-15-----------13----|
G |-12----12----12----12----12--------15-12-15--------|
D |---------------------------------------------------|
A |---------------------------------------------------|
E |---------------------------------------------------|

e |-----------------------------------------|
B |-----------------------------------------|
G |-12---15--13--12--10--8--7--7-12-12------|
D |-----------------------------------------|
A |-----------------------------------------|
E |-----------------------------------------|

e |---------------------------------------------------|
B |-----13----------15----------16-15-----------13----|
G |-12----12----12----12----12--------15-12-15--------|
D |---------------------------------------------------|
A |---------------------------------------------------|
E |---------------------------------------------------|

e |-----------------------------------------|
B |-----------------------------------------|
G |-12---15--13--12--10--8--7--7-5-5--------|
D |-----------------------------------------|
A |-----------------------------------------|
E |-----------------------------------------| x1

 ----------------------------------
| Repeat from intro one more time. |
 ----------------------------------

Guitar Tab written by Justin Le, 2008 (c).
Please comment if there are any corrections that need to be made. Thank you.
Tap to rate this tab
# A B C D E F G H I J K L M N O P Q R S T U V W X Y Z