Song name
# A B C D E F G H I J K L M N O P Q R S T U V W X Y Z

Misc Computer Games - Castle Crashers - The Necromancer tab

-----------------------------------------------------------------
Necromancer's Theme - Castle Crashers
-----------------------------------------------------------------
Tabbed by:lemay
Tuning: Standard

Intro(Heavy Distortion):
Riff 1
E|---------------------------------------------------------------|
B|---------------------------------------------------------------|
G|---------------------------------------------------------------|
D|--------------2-2~---2---1-0--------------2-2~---2---1-0-------| x2
A|-1-1~-0-1-0--------2---2-----1-1~-0-1-0--------2---2-----------|
E|------------3~--------------------------3~---------------------|

Riff 2(Drums and Bass join)
E|---------------------------------------------------------------|
B|---------------------------------------------------------------|
G|---------------------------------------------------------------|
D|--------------2~~~~~~~---1-0--------------2~~~~~~~---1-0-------| x2
A|-1-1~-0-1-0------------2-----1-1~-0-1-0------------2-----------|
E|------------3~--------------------------3~---------------------|

Breakdown (Distortion and Phaser)
Riff 3
E|---------------------------------------------------------------|
B|---------------------------------------------------------------|
G|---------------------------------------------------------------|
D|-3-3---2-2----------------------3-3---2-2----------------------| x4
A|-1-1---0-0---5-5---2-2-2~~~-2-221-1---0-0---5-5---2-2-2~~~-2-22|
E|-------------3-3---0-0-0~~~-0-00------------3-3---0-0-0~~~-0-00|
                              * **                           * **
                              
Verse
Riff 4a
E|--------------16----------17----17----16-----------------------|\
B|--14h17p16p14----14h17p14----14----14----14h17p14--------------| |
G|---------------------------------------------------------------| |
D|---------------------------------------------------------------| |
A|---------------------------------------------------------------| |
E|---------------------------------------------------------------| | 
                                                                   | x3
E|-------------------------17----17----14------------------------| |
B|--14h17p16p14---17p16-------14----14---17p16h17----------------| |
G|--------------14------14---------------------------------------| |
D|---------------------------------------------------------------| |
A|---------------------------------------------------------------| |
E|---------------------------------------------------------------|/

Riff 4b
E|--------------16----------17----17----16-----------------------|\
B|--14h17p16p14----14h17p14----14----14----14h17p14--------------| |
G|---------------------------------------------------------------| |
D|---------------------------------------------------------------| |
A|---------------------------------------------------------------| |
E|---------------------------------------------------------------| | 
                                                                   | x1
E|-------------------------17----17-------14---------------------| |
B|--14h17p16p14---17p16p14----14----14-16----17p16---------------| |
G|--------------14-----------------------------------------------| |
D|---------------------------------------------------------------| |
A|---------------------------------------------------------------| |
E|---------------------------------------------------------------|/

Chorus
Riff 5(bass part, i guess, but the guitar can play too)
E|---------------------------------------------------------------|
B|---------------------------------------------------------------|
G|---------------------------------------------------------------|
D|----------------2-2-2-2-2-0-2-0-----------------2-2-2-2-2-0-2-0| x2
A|1-1-1-1-0-0---------------------1-1-1-1-0-0--------------------|
E|------------3-3-----------------------------3-3----------------|

Riff 3 x4

Riff 4a x3
Riff 4b x1

Riff 3 x2

Riff 4a x3
Riff 4b x1

Riff 3 x4

Riff 6 (again bass, but guitar can play it too.)
E|---------------------------------------------------------------|
B|---------------------------------------------------------------|
G|---------------------------------------------------------------|
D|------------6-----------7-7-7-7-4-4-4-4-4-4-7-6----------------| 
A|4-4-4-4-4-4---4-7-7-7-7-------------------------7-7-7-7--------|
E|--------------------------------------------------------7-7-7-7|

Riff 4a x2
Riff 4b x1

Riff 3 x2

Tablature Notation

h - hammer on 
p - pull off 
b - bend string up
r - release bend
/ - slide up
\ - slide down
v - vibrato
~ - hold out note
t - right hand tap
x - play 'note' with heavy muting
Tap to rate this tab
# A B C D E F G H I J K L M N O P Q R S T U V W X Y Z