Song name
# A B C D E F G H I J K L M N O P Q R S T U V W X Y Z

Misc Computer Games - Final Fantasy - Controlling The Iron Beast tab

Game: Final Fantasy VII: Crisis Core
Composer:Takeharu Ishimoto

This sounds pretty accurate to me but if you notice any mistakes or if you think
would sound better another way, comments are always welcome

D#|--------------------------------|
A#|--------------------------------|
F#|--------------------------------| X8
C#|--------8v~--------9v~----------|
G#|--------8v~--------9v~----------|
C#|-00-000-----00-000--------------|
 PM-..  ...    ..  ...


D#|-------------------------------------------------------------------------------|
A#|-------------------------------------------------------------------------------|
F#|-------------------------------------------------------------------------------|
C#|--------------x-x----------------x-x---------------x-x-------------------------|
G#|-2-2-2-0--3-2-x-x---2-2-2-0--3-2-x-x--2-2-2-0--3-2-x-x--2-2-2-0--5-3-2---------|
C#|-2-2-2-0--3-2-x-x---2-2-2-0--3-2-x-x--2-2-2-0--3-2-x-x--2-2-2-0--5-3-2---------|

D#|--------------------------------------------------------------------------------|
A#|--------------------------------------------------------------------------------|
F#|--------------------------------------------------------------------------------|
C#|--------------x-x----------------x-x---------------x-x--------------------------|
G#|-2-2-2-0--3-2-x-x---2-2-2-0--3-2-x-x--2-2-2-0--3-2-x-x--2-2-2-0--5-3-2----------|
C#|-2-2-2-0--3-2-x-x---2-2-2-0--3-2-x-x--2-2-2-0--3-2-x-x--2-2-2-0--5-3-2----------|

D#|------------------------------------------|
A#|------------------------------------------|
F#|------------------------------------------|
C#|--------2/8v~-------2/9v~-----------------|  X2
G#|------------------------------------------|
C#|--00-0--------00-0------------------------|
 PM-   .. .      .. .

D#|---------------------------------|
A#|---------------------------------|
F#|---------------------------------| X8
C#|--------8v~--------9v~-----------|
G#|--------8v~--------9v~-----------|
C#|-00-000-----00-000---------------|
 PM-.. ...     ..  ...


D#|-------------------------------------------------------------------------------|
A#|-------------------------------------------------------------------------------|
F#|-------------------------------------------------------------------------------|
C#|--------------x-x----------------x-x---------------x-x-------------------------|
G#|-2-2-2-0--3-2-x-x---2-2-2-0--3-2-x-x--2-2-2-0--3-2-x-x--2-2-2-0--5-3-2---------|
C#|-2-2-2-0--3-2-x-x---2-2-2-0--3-2-x-x--2-2-2-0--3-2-x-x--2-2-2-0--5-3-2---------|


D#|-----------------------------------------------------|
A#|-----------------------------------------------------|
F#|-----------------------------------------------------|
C#|--------2/8v~-------2/9v~----------------------------|  X2
G#|-----------------------------------------------------|
C#|--00-0--------00-0-----------------------------------|
 PM-   .. .       .. .

D#|-/21~-\19~--\17~--\16~---/21~-\19~--\17~--\16~-----/21~-\19~--\17~--\16~--------|
A#|--------------------------------------------------------------------------------|
F#|--------------------------------------------------------------------------------|
C#|--------------------------------------------------------------------------------|
G#|--------------------------------------------------------------------------------|
C#|--------------------------------------------------------------------------------|

/21~-\19~--\17~--\16~----|
-------------------------|
-------------------------|
-------------------------|
-------------------------|
-------------------------|
Tap to rate this tab
# A B C D E F G H I J K L M N O P Q R S T U V W X Y Z