Song name
# A B C D E F G H I J K L M N O P Q R S T U V W X Y Z

Misc Computer Games - Doom Ii - Suburbs tab

Standard Tuning

E-------------------------------|
B-------------------------------|
G-------------------------------|
D---4-3--5-4-4-3---2-0----------|
A--2----2---2-----2---4-0-------|
E-------------------------------|      X2

E-------------------------------------------------|
B-------------------------------------------------|
G-------------------------------------------------|
D--0---1-0-0------------0---1-0-------------------|
A---4-------4--3-1-0-----4-------2-1-3-2----------|         X2
E-3--3----3--3------1--3--3-----0---0-------------|

E-----------------------------|
B-----------------------------|
G-----------------------------|
D---4-3--5-4-4-3---2-0--------|
A--2----2---2-----2---4-0-----|
E-----------------------------|    X2


E-------------------------------------------------|
B-------------------------------------------------|
G-------------------------------------------------|
D--0---1-0-0------------0---1-0-------------------|
A---4-------4--3-1-0-----4-------2-1-3-2----------|         X2
E-3--3----3--3------1--3--3-----0---0-------------|
Tap to rate this tab
# A B C D E F G H I J K L M N O P Q R S T U V W X Y Z