Song name
# A B C D E F G H I J K L M N O P Q R S T U V W X Y Z

Misc Computer Games - Metal Gear Solid 4 - Old Snake tab

----------------------------------------------------------------------------
			 Old Snake - Metal Gear Solid 4
----------------------------------------------------------------------------

Tabbed by: webbster87
difficulty: novice

Tuning: standard

e|13~------------16~--13~--13--14~-----11-11-14-11-13-|
B|---11~--11-11--------------------13-----------------|
G|----------------------------------------------------|
D|----------------------------------------------------|
A|----------------------------------------------------|
E|----------------------------------------------------|

e|13~------------16~--13~--13--14------11-11-14-11-13------------|
B|---11~--11-11--------------------13-----------------14p13p11~~-|
G|---------------------------------------------------------------|
D|---------------------------------------------------------------|
A|---------------------------------------------------------------|
E|---------------------------------------------------------------|

                 or you can play it lower on the neck like this

e|--------------------------------------|
B|6~---------9~--6~--6--7-----4-4-7-4-6-|
G|--3~--3-3----------------5------------|
D|--------------------------------------|
A|--------------------------------------|
E|--------------------------------------|

e|----------------------------------------------|
B|6~---------9~--6~--6--7-----4-4-7-4-6---------|
G|--3~--3-3----------------5------------6p5p3~~-|
D|----------------------------------------------|
A|----------------------------------------------|
E|----------------------------------------------|


Enjoy!!!
Tap to rate this tab
# A B C D E F G H I J K L M N O P Q R S T U V W X Y Z