Song name
# A B C D E F G H I J K L M N O P Q R S T U V W X Y Z

Misc Computer Games - Legend Of Zelda - Storms tab

Standard tuning


e|-----------------12--13-12-13-12-------|
B|------15-----15-----------------13-----|
G|----14-----14---------------------14---|
D|--12-----12----------------------------|
A|---------------------------------------|
E|---------------------------------------|


e|---------------------------------|
B|---------------------------------|
G|--14------12-14----14-----12-----|
D|----12-15------------12-15--14---|
A|---------------------------------|
E|---------------------------------|


e|-----------------12--13-12-13-12-------|
B|------15-----15-----------------13-----|
G|----14-----14---------------------14---|
D|--12-----12----------------------------|
A|---------------------------------------|
E|---------------------------------------|


e|---------------------------------|
B|---------------------------------|
G|--14------12-14---14-------------|
D|----12-15------------12----------|
A|---------------------------------|
E|---------------------------------|
Tap to rate this tab
# A B C D E F G H I J K L M N O P Q R S T U V W X Y Z