Song name
# A B C D E F G H I J K L M N O P Q R S T U V W X Y Z

Misc Computer Games - Portal - Still Alive tab

This tab was written up by a friend of mine. It's the rythm to the Portal theme song.
and easy, and a lot more recognisable.

-------------------------------------------------------------------------------
			        Portal Theme
-------------------------------------------------------------------------------
Tabbed by: Skuli Danielson
Email: superdog1019@hotmail.com

e|-3-2-0-0-2-----3-2-0-0---2-------------0-2-3-0-----------2---3-2-0-0-2-----|
B|-------------0-------------3---5-0---0---------2-3-5-0-3-----------------0-|
G|---------------------------------------------------------------------------|
D|---------------------------------------------------------------------------|
A|---------------------------------------------------------------------------|
E|---------------------------------------------------------------------------|

e|---3-2-0-0---2-----------0-2-3-0--------------|
B|-0-------------3---5-0-----------2-3-5----2-3-|
G|---------------------------------------4------|
D|----------------------------------------------|
A|----------------------------------------------|
E|----------------------------------------------|

| /  slide up
| \  slide down
| h  hammer-on
| p  pull-off
| ~  vibrato
| +  harmonic
| x  Mute note
===============================================================================
Tap to rate this tab
 
# A B C D E F G H I J K L M N O P Q R S T U V W X Y Z