Song name
# A B C D E F G H I J K L M N O P Q R S T U V W X Y Z

Misc Computer Games - Fablefable 2 Theme tab

-------------------------------------------------------------------------------
			     SONG NAME - Fable/Fable 2 theme
-------------------------------------------------------------------------------
Tabbed by:Scarecrow-Who.

Tuning:Standard.

Fable/Fable:The Lost Chapters.

e|-----------------------------| Repeat as many times as you like and end
B|-----------------------------| on open E.
G|-----------------------------|
D|-----------------------------|
A|---2-0h2h3-0-2-0---0-2---0-2-|
E|-0---------------3-----3-----|

Fable 2 Music Box.

e|------------------------------------------------13-13-11h13h15-11-----------------------------13|
B|------13-11h13h14-11-13-11----11-13-------14p13-------------------13-11h13h14p13------------13--|
G|10s13----------------------13-------13p12--------------------------------------------13p12------|
D|------------------------------------------------------------------------------------------------|
A|------------------------------------------------------------------------------------------------|
E|------------------------------------------------------------------------------------------------|

Or if you want to play it at the same pitch as
Fable/Fable:The Lost Chapters,

e|-------------------------------------------------------------|
B|-------------------------------------------------------------|
G|-------------------------------------------------------------|
D|-------------------------------2-2-0h2h4-0-----------------2-|
A|---2-0h2h3-0-2-0---0-2-----3p2-------------2-0h2h3p2-----2---|
E|-0---------------3-----3p2---------------------------3p2-----|
Tap to rate this tab
# A B C D E F G H I J K L M N O P Q R S T U V W X Y Z