Song name
# A B C D E F G H I J K L M N O P Q R S T U V W X Y Z

Misc Computer Games - Mortal Kombat Theme tab

The theme song to one of the best fighting games ever. Hope you enjoy!

    
Section A 
          X2

e|--------------0---------0---3---0----------------------------------------|
B|------1---3-----3---1-1---1---1---1------0---1---3-1-----------1---1-0---|
G|--2-2---2---2------------------------0-0---0---0-----------2-------------|
D|-------------------------------------------------------3-3---3---3-------|
A|-------------------------------------------------------------------------|
E|-------------------------------------------------------------------------|

Section B 
          X2

e|-------------------------------------------------------------------------|
B|-------------------------------------------------------------------------|
G|-2--2--2--2--0-5--2--2--2--2--0----2--2--2--2--0-5--2--2--2--22-22-------|
D|-2--2--2--2--0-5--2--2--2--2--0-2--2--2--2--2--0-5--2--2--2--22-22-------|
A|--------------------------------2----------------------------------------|
E|-------------------------------------------------------------------------|


Section C
          X2
 
e|-------------------------------------------------------------------------|
B|----5---------------------------5---------------------------5------------|
G|--2----2-5--2-3--5-3---3p2p0--2----2-5--2-3--5-3---3p2p0--2----2-5-------|
D|-------------------------------------------------------------------------|
A|-------------------------------------------------------------------------|
E|-------------------------------------------------------------------------|

e|-------------------------------------------------------------------------|
B|------------------5------------------------------------------------------|
G|---5-3---3p2p0--2----2-5--0-0--0-2-2-------------------------------------|
D|-------------------------------------------------------------------------|
A|-------------------------------------------------------------------------|
E|-------------------------------------------------------------------------|

  When you repeat section C, dont play the last 9 notes


      The second time the voice starts saying character's names, the riff in the 
bacground is played as follows
e|-------------------------------------------------------------------------|
B|-------------------------------------------------------------------------|
G|-15-15-----------------------16--15--15-15-----------------------16--15--|
D|--------15-15--13-13--11-11-----------------15-15--13-13--11-11----------|
A|-------------------------------------------------------------------------|
E|-------------------------------------------------------------------------|

      repeat 4 times


          That' pretty much all there is to it. 
Tap to rate this tab
# A B C D E F G H I J K L M N O P Q R S T U V W X Y Z