Song name
# A B C D E F G H I J K L M N O P Q R S T U V W X Y Z

Misc Computer Games - Call Of Duty 4 - Marines Theme tab

Nobody has a tab for this, so I decided to figure it out. Enjoy =)

Tuning: Standard ( E A D G B e )
-------------|
Legend:      |
h: Hammer On |
p: Pull Off  |
v: Vibrato   |
.: Palm Mute |
-------------|
  
Spawn Riff   
E|--------15----15----15----15----15----------|
B|--15b17-17-15b17-15b17-15b17-15b17----------|
G|--------------------------------------------|
D|--------------------------------------------|
A|--------------------------------------------|
E|--------------------------------------------|
        ^hold bend here

E|------------------------------------------------------------|
B|--15p12h15p12h15p12h15p12h15p12h15p12h15p12h15p12-----------|
G|---------------------------------------------------14b16v---|
D|------------------------------------------------------------|
A|------------------------------------------------------------|
E|------------------------------------------------------------|


Victory Riff:
E|--------------------------------------------------|
B|--------------------------------------------------|
G|--------------------------------------------------|
D|--2-2---2-2--2-2--2-2---2-2--2-2--2-2---2-2--2-2--|
A|--2-2---2-2--2-2--2-2---2-2--2-2--2-2---2-2--2-2--|
E|--0-0---0-0--0-0--0-0---0-0--0-0--0-0---0-0--0-0--|
                                               .
Ok, that's it, enjoy!
Tap to rate this tab
# A B C D E F G H I J K L M N O P Q R S T U V W X Y Z