Guitaretab - guitar tabs
Song name
# A B C D E F G H I J K L M N O P Q R S T U V W X Y Z

Misc Computer Games - Xenogears - The Treasure That Cannot Be Stolen tab

-------------------------------------------------------------------------------
	                   The Treasure Which Cannot be Stolen - Xenogears
-------------------------------------------------------------------------------
Tabbed by:Xaxu
Tuning:Standard

This is an arrangement by Riulyn and composed by Yasunori Mitsuda.
The video from timing is here = http://www.youtube.com/watch?v=tHAJzQpv9SM


  0:01 - 0:15
e|----------------------------------------------------------|
B|----------------------------------------------------------|
G|-------------0-----0--2--0-----------------0-----0-----0--|
D|-------3---3-----3---------3---------3---3-----3-----3----|
A|--1--3---3-----3-------------3--1--3---3-----3-----3------|
E|----------------------------------------------------------|

  0:16 - 0:28
e|--1--0--1---1--3--5--6--3--1--1----|
B|----------1---------------------1--|
G|-----------------------------------|
D|-----------------------------------|
A|-----------------------------------|
E|-----------------------------------|

  0:33 - 0:46
e|------------------------------------------------------|
B|----------------------------------1-------------------|
G|--------------0--2--0--2--0----0--0--3--1--0----0-----|
D|--3--2--3---3----3--------0--3---------------3--3--2--|
A|--1-------3------3------------------------------3-----|
E|----------3-------------------------------------------|
[ Tab from: http://www.guitaretab.com/m/misc-computer-games/181377.html ]
  0:48 - 1:01
e|--------------------------------------------------------|
B|----------------------------------1----1--2--1----------|
G|--------------0--2--0--2--0----0--0--3---------3--0-----|
D|--3--2--3---3----3--------0--3------------3-------3--2--|
A|--1-------3------3--------------------------------3-----|
E|----------3---------------------------------------------|

  1:02 - 1:12
e|--1---1--1--1------5------------------------1---3-----5--|
B|------3---------1--6--3-----1--1------------3---5---1----|
G|----2---------0-----------3--------3--2---2---2---0------|
D|------------------------3------3--------0----------------|
A|---------------------------------3-----------------------|
E|---------------------------------------------------------|

  1:13 - 1:23
e|--5----------------1---1--1--3------5--------------------|
B|--6-----1-----3--5-----3---------1--6--3-----1--1--------|
G|--7---3-----3--------2---------0-----------3----------0--|
D|----3-----3------------------------------3------3---3----|
A|--------------------------------------------------3------|
E|---------------------------------------------------------|

  1:24  - 1:31
e|---------0--1---5---3--5--3-----3-----1--5--|
B|------3--1--3-------------1---1-----1----5--|
G|----2-------3---3-----------0-----0---------|
D|--0-----------3---3-------------------------|
A|--------------------------------------------|
E|--------------------------------------------|


Repeat till infinity.


| /  slide up
| \  slide down
| h  hammer-on
| p  pull-off
| ~  vibrato
| +  harmonic
| x  Mute note
===============================================================================
Related for Xenogears - The Treasure That Cannot Be Stolen tab
Advertisement will be closed in 10 seconds