Song name
# A B C D E F G H I J K L M N O P Q R S T U V W X Y Z

Misc Computer Games - Xenogears - My Village Is Number One tab

-------------------------------------------------------------------------------
	                 My Village is Number One - Xenogears
-------------------------------------------------------------------------------
Tabbed by:Xaxu
Tuning:Standard

This is an arrangement by Riulyn and composed by Yasunori Mitsuda.
The video from timing is here = http://www.youtube.com/watch?v=9PUaGQUvHyc


  0:01 - 0:09
e|-----------------------------------|
B|-------------------------0---2--3--|
G|-----------------------2---1-------|
D|--2--2--0--0--2--2--4--4---2-------|
A|--2--2--0--0--2--2--5--------------|
E|-----------------------------------|

  0:10 - 0:17
e|--0--0--5--0-----------------------------------------------------------------------|
B|-------------3--2--0--2--0---0--2---------------2--2--0--2--0---0------------2--3--|
G|---------------------------2--------2--1---1--2---------------2---2--1--2--1-------|
D|----------------------------------2------4-----------------------------------------|
A|-----------------------------------------------------------------------------------|
E|-----------------------------------------------------------------------------------|

  0:18 - 0:25
e|--0--0--5--0--------------------------------------------------------0-------|
B|-------------3--2--0--2--0---0--2---------------2--2--4--2--0--2--4---2--3--|
G|---------------------------2--------2--1---1--2-----------------------------|
D|----------------------------------2------4----------------------------------|
A|----------------------------------------------------------------------------|
E|----------------------------------------------------------------------------|

  0:26 - 0:33
e|--0--0--5--0-----------------------------------------------------------------------|
B|-------------3--2--0--2--0---0--2---------------2--2--0--2--0---0------------2--3--|
G|---------------------------2--------2--1---1--2---------------2---2--1--2--1-------|
D|----------------------------------2------4-----------------------------------------|
A|-----------------------------------------------------------------------------------|
E|-----------------------------------------------------------------------------------|

  0:34 - 0:42
e|--0--0--5--0--------------------------------------------------------0--|
B|-------------3--2--0--2--0---0--2---------------2--2--4--2--0--2--4----|
G|---------------------------2--------2--1---1--2------------------------|
D|----------------------------------2------4-----------------------------|
A|-----------------------------------------------------------------------|
E|-----------------------------------------------------------------------|

  0:43 - 0:51
e|--0----------------------------------------------------------------|
B|----3--2--3--2--3--2--0--2--0---0-----------0----------------------|
G|------------------------------2-----2--1--2------------------------|
D|----------------------------------2-----------2--0--2--4--2--4--2--|
A|-------------------------------------------------------------------|
E|-------------------------------------------------------------------|

  0:52 - 1:00
e|--0----------------------------------------------------------------------|
B|----3--2--3--2--3--2--0--2--0---0-----------0---0---------------0--2--3--|
G|------------------------------2-----2--1--2---2---2--1--2--1--2----------|
D|----------------------------------2--------------------------------------|
A|-------------------------------------------------------------------------|
E|-------------------------------------------------------------------------|

  1:01 - 1:05
e|--0------------------------------------------|
B|----3--2--3--2--3--2--0--2--0---0------------|
G|------------------------------2-----2--1--2--|
D|----------------------------------2----------|
A|---------------------------------------------|
E|---------------------------------------------|

  1:06 - 1:09
e|-------------------------------|
B|--0---0------------------------|
G|----2---2----------------------|
D|----------2--0--2--4--2--4--2--|
A|-------------------------------|
E|-------------------------------|

  1:10 - 1:14
e|--0------------------------------------------|
B|----3--2--3--2--3--2--0--2--0---0------------|
G|------------------------------2-----2--1--2--|
D|----------------------------------2----------|
A|---------------------------------------------|
E|---------------------------------------------|

  1:15 - 1:22
e|-------------------------------------|
B|--0---0-----------------------0---3--|
G|----2---2--1--2-------------2-----2--|
D|----------------2--4--2--4--2---2----|
A|-------------------5--4--5-----------|
E|-------------------------------------|

  1:23 - 1:38
e|-----0--------------0----------------------------------|
B|--2--0--3--2--2--3--0--3--2--2--0---------------0---3--|
G|--2--------2--1--2-----1--2--2--1-------------2-----2--|
D|----------------------------------2--4--2--4--2---2----|
A|----------------------------------4--5--4--5-----------|
E|-------------------------------------------------------|

  1:39 - 1:50
e|--0----0--------------0--------|
B|----2--0--3--2--2--3--0--0-----|
G|----2--------2--1--2-----1--2--|
D|----------------------------2--|
A|-------------------------------|
E|-------------------------------|


Repeat till infinity.


| /  slide up
| \  slide down
| h  hammer-on
| p  pull-off
| ~  vibrato
| +  harmonic
| x  Mute note
===============================================================================
Tap to rate this tab
 
# A B C D E F G H I J K L M N O P Q R S T U V W X Y Z