Song name
# A B C D E F G H I J K L M N O P Q R S T U V W X Y Z

Misc Computer Games - Xenogears - Daijiru City Of Burning Sands tab

-------------------------------------------------------------------------------
	                 Daijiru: City of Burning Sands - Xenogears
-------------------------------------------------------------------------------
Tabbed by:Xaxu
Tuning:Standard

This is an arrangement by Riulyn and composed by Yasunori Mitsuda.
The video from timing is here = http://www.youtube.com/watch?v=1mUwLdcywVI


  0:05 - 0:08
e|------------------|
B|------------------|
G|------------------|
D|----------2-------|
A|--3--3--4---4--3--|
E|------------------|

  0:12 - 0:17
e|--------0--1--3--4--6--4--6--4--3--4--3--1--3--|
B|--1--1-----------------------------------------|
G|-----------------------------------------------|
D|-----------------------------------------------|
A|-----------------------------------------------|
E|-----------------------------------------------|

  0:18 - 0:23
e|-------0--1--3--1--3--1---------------------------|
B|--1--1------------------5--1---1--2--1--2--1---1--|
G|-----------------------------3---------------3----|
D|--------------------------------------------------|
A|--------------------------------------------------|
E|--------------------------------------------------|

  0:24 - 0:28
e|--------0--1--3--4--6--4--6--4--3--4--3--1--3--|
B|--1--1-----------------------------------------|
G|-----------------------------------------------|
D|-----------------------------------------------|
A|-----------------------------------------------|
E|-----------------------------------------------|

  0:29 - 0:34
e|-------0--1--3--1--3--1---------------------------|
B|--1--1------------------5--1---1--2--1--2--1---1--|
G|-----------------------------3---------------3----|
D|--------------------------------------------------|
A|--------------------------------------------------|
E|--------------------------------------------------|

  0:35 - 0:42
e|-----------------------------------------------------------|
B|--1---------------------------------------1--------1-------|
G|----3--0---0--1--0--1--0---------0------0--------3---0--0--|
D|---------3---------------3--2--3---2--3---3--2-------------|
A|-----------------------------------------------3-----------|
E|-----------------------------------------------------------|

  0:43 - 0:48
e|--------------------------------------------|
B|----------------1---1---1--2--1--2--1-------|
G|--3--1--3--1--3---0---3---------------3--1--|
D|--------------------------------------------|
A|--------------------------------------------|
E|--------------------------------------------|

  0:49 - 0:54
e|------------------------------------------------------|
B|---------------------------------------------1--2--1--|
G|--0--1--0--1--0---------0------------0--1--3----------|
D|----------------3--2--3---------2--3---------2--3--2--|
A|--------------------------3----------1--3--4----------|
E|-----------------------------1--3--4------------------|

  0:55 - 0:57
e|----------------------------|
B|--2--1----------------------|
G|----------------------------|
D|----------------------------|
A|-------3--4--3--4--3--4--3--|
E|----------------------------|

  0:58 - 1:08
e|--8--8--6--8--8--8--6--9--8--8--6--8--8--8--6--9--9--|
B|--8--8--6--8--8--8--6--9--8--8--6--8--8--8--6--9--9--|
G|-----------------------------------------------------|
D|-----------------------------------------------------|
A|-----------------------------------------------------|
E|-----------------------------------------------------|

  1:09 - 1:30
e|------------------------------------------------------------------------|
B|-------1-------------------1-------------------1----------------1-------|
G|--0--0---3--1--0---0--0--0---3--1--0---0--0--0---3--1--0---0--0---3--1--|
D|------------------------------------------------------------------------|
A|-----------------3-------------------3-------------------3--------------|
E|------------------------------------------------------------------------|

Repeat till infinity


| /  slide up
| \  slide down
| h  hammer-on
| p  pull-off
| ~  vibrato
| +  harmonic
| x  Mute note
===============================================================================
Tap to rate this tab
# A B C D E F G H I J K L M N O P Q R S T U V W X Y Z