Guitaretab - guitar tabs
Song name
# A B C D E F G H I J K L M N O P Q R S T U V W X Y Z

Misc Computer Games - Kingdom Hearts 2 - Dearly Beloved tab

Kingdom Hearts II - Dearly Beloved

0:05
e|------------------3--1------|
b|------8--6-----1--------3---|
g|---5--------7---------------|
d|----------------------------|
a|----------------------------|
E|----------------------------|

0:14
e|-------------------|
b|---------------5---|
g|-----------5-7-----|
d|-------5-7---------|
a|---5-7-------------|
E|-------------------|

0:18
e|--------------------|
b|--------------1-----|
g|------5---------3---|
d|--------8---1-------|
a|---6----------------|
E|--------------------|

0:25
e|-------------------------------------|
b|---13----------15---13----------15---|
g|-------12--10-----------12--10-------|
d|-------------------------------------|
a|-------------------------------------|
E|-------------------------------------|

e|-------------------------------------------|
b|---16--15--20--18h20p18---16--15--13--11---|
g|-------------------------------------------|
d|-------------------------------------------|
a|-------------------------------------------|
E|-------------------------------------------|

0:43
e|---8--------10---8--------10---|
b|------8--6---------8--6--------|
g|-------------------------------|
d|-------------------------------|
a|-------------------------------|
E|-------------------------------|

e|---11--10--15--13---11--10--8--15---|
b|------------------------------------|
g|------------------------------------|
d|------------------------------------|
a|------------------------------------|
E|------------------------------------|
[ Tab from: http://www.guitaretab.com/m/misc-computer-games/181401.html ]
0:59
e|---------------------------3---------3------4-6-3-1-3---|
b|----------1-------3-----1---------6---------------------|
g|------1h3------------3----------------------------------|
d|---1h3--------------------------------------------------|
a|--------------------------------------------------------|
E|--------------------------------------------------------|

e|-------------------3---------------------|
b|---1------3-----1----------6--4----------|
g|-------------3-------------------7-5-----|
d|-----------------------------------------|
a|-----------------------------------------|
E|-----------------------------------------|

1:28
e|----------------|
b|----------------|
g|---10--8--7-5---|
d|----------------|
a|----------------|
E|----------------|

1:32
e|-------------------------3----------3-------4-6-3-1-3---|
b|-------1-------3-----1-----------6----------------------|
g|---3--------------3-------------------------------------|
d|--------------------------------------------------------|
a|--------------------------------------------------------|
E|--------------------------------------------------------|

e|-------------------------3----------3-------4-6-3-1-3---|
b|-------1-------3-----1-----------6----------------------|
g|---3--------------3-------------------------------------|
d|--------------------------------------------------------|
a|--------------------------------------------------------|
E|--------------------------------------------------------|

2:05
e|---8--------10---8--------10---|
b|------8--6---------8--6--------|
g|-------------------------------|
d|-------------------------------|
a|-------------------------------|
E|-------------------------------|


...Start over---
Related for Kingdom Hearts 2 - Dearly Beloved tab
×
Kingdom Hearts 2 - Dearly Beloved