Song name
# A B C D E F G H I J K L M N O P Q R S T U V W X Y Z

Misc Computer Games - The Legend Of Zelda The Wind Waker - Wind Gods Aria tab

-------------------------------------------------------------------------------
			     The Legend of Zelda: The Wind Waker - Wind God's Aria - Koji Kondo
-------------------------------------------------------------------------------
Tabbed by:Xaxu
Tuning:Standard

This is an arrangement by Richard Schaefer and composed by Koji Kondo.


e|-------------------------------------------------------------------------------------|
B|--10--10----------------------------10-----------------------------10--12--12--------|
G|---------12--11--9--11------------9-----------12--------11--11--12------------12--9--|
D|-----------------------12--11--12------12--12----12--12------------------------------|
A|-------------------------------------------------------------------------------------|
E|-------------------------------------------------------------------------------------|

e|------------------------------------------------------------------------|
B|--10--10------------------------------------------10--------------------|
G|---------12--11----9--11--9--9--9------------9--9----9----12--------11--|
D|----------------12----------------12--11--12-----------11----12--12-----|
A|------------------------------------------------------------------------|
E|------------------------------------------------------------------------|

e|--------------------------------------------------------|
B|--------------------------10--12------------------------|
G|--11--9----9-----------12--------11----11--9--9--11--9--|
D|--------11---12--9--12--------------12------------------|
A|--------------------------------------------------------|
E|--------------------------------------------------------|

e|------------------------------------------------------------------------|
B|--10--10----------------------------10----------------10--12--12--------|
G|---------12--11--9--11------------9----12--11--11--12------------12--9--|
D|-----------------------12--11--12---------------------------------------|
A|------------------------------------------------------------------------|
E|------------------------------------------------------------------------|

e|---------------------------------------------------------------------|
B|--10--10---------------------------------------10--------------------|
G|---------12--11----9--11--9--9------------9--9----9----12--------11--|
D|----------------12-------------12--11--12-----------11----12--12-----|
A|---------------------------------------------------------------------|
E|---------------------------------------------------------------------|

e|-----------------------------------------------------------|
B|--------------------------10--12----------------10---------|
G|--11--9----9-----------12--------11----11--9--9------------|
D|--------11---12--9--12--------------12---------------------|
A|---------------------------------------------------12--12--|
E|-----------------------------------------------------------|


Hope you enjoy it!


| /  slide up
| \  slide down
| h  hammer-on
| p  pull-off
| ~  vibrato
| +  harmonic
| x  Mute note
===============================================================================
Tap to rate this tab
 
# A B C D E F G H I J K L M N O P Q R S T U V W X Y Z