Song name
# A B C D E F G H I J K L M N O P Q R S T U V W X Y Z

Misc Computer Games - Pikmin - Love Song tab

-------------------------------------------------------------------------------
		    Love Song - Pikmin
-------------------------------------------------------------------------------


Tabbed by:Xaxu
Tuning:Standard

This is also known as Ai No Uta
This was originally tabbed by blank and the video used for timing 
is here = http://www.youtube.com/watch?v=esYm9q-bi4w


e|---------------------------2--|
B|------3-------3-------3----3--|
G|----2---2---2---2---2---2--2--|
D|--0---------------0--------0--|
A|----------0----------------0--|
E|------------------------------|

e|------2-------2-------3-------3-------2-------2-----0---0-----2----|
B|------3-------3-------3-------3-------3-------3-----0---2-----3----|
G|----2---2---2---2-------2-------2---------------------------2---2--|
D|--0-----------------0-------0-------0---0---0---0---------0--------|
A|----------0-----------------------2-------------------0------------|
E|------------------3-------3---------------2-------3----------------|

e|------2-------2-------3-------3-------2-------2-----0---0-----2----|
B|------3-------3-------3-------3-------3-------3-----0---2-----3----|
G|----2---2---2---2-------2-------2---------------------------2---2--|
D|--0-----------------0-------0-------0---0---0---0---------0--------|
A|----------0-----------------------2-------------------0------------|
E|------------------3-------3---------------2-------3----------------|

e|-----0-------0---2---2---2---2--------0-------0---2---2---7---7--|
B|-----0-------2---3---3---3---3--------0-------2---3---3---3---3--|
G|-----------------------------------------------------------------|
D|---0---0---0---0---0---0---0---0----0---0---0---0---0---0---0----|
A|---------0--------------------------------0----------------------|
E|-3--------------------------------3------------------------------|

e|-----0-------0-------0------0-------0-------0---2---2---2----|
B|-----0-------2-------0------2-------0-------2---3---3---3----|
G|-------------------------------------------------------------|
D|---0---0---0---0---0---0---0--0---0---0---0---0---0---0---0--|
A|---------0---------------0--------------0--------------------|
E|-3---------------3--------------3----------------------------|

Any questions or comments go to Xaxu at www.Ultimate-Guitar.com

| /  slide up
| \  slide down
| h  hammer-on
| p  pull-off
| ~  vibrato
| +  harmonic
| x  Mute note
===============================================================================
Tap to rate this tab
# A B C D E F G H I J K L M N O P Q R S T U V W X Y Z