Guitaretab - guitar tabs
Song name
# A B C D E F G H I J K L M N O P Q R S T U V W X Y Z

Misc Computer Games - Legend Of Zelda - Kakariko Is Saved tab

-------------------------------------------------------------------------------
              Zelda: Twilight Princess Music - Kakariko is Saved
-------------------------------------------------------------------------------
Tabbed By: 0GibsonLesPaul0


Tuning: Standard

http://www.youtube.com/watch?v=rzX350VPIqc That is the video that I got the tab off of.



PART 1 | 2X
[ Tab from: http://www.guitaretab.com/m/misc-computer-games/182183.html ]
e|----------------------------------------------------------------------------|
B|------2--------2--------------2---------2------------------------------2----|
G|--------------2----2------------------2-----2--------------0----------22---|
D|---4--------2--------2------4-------2---------2-----------0-----0----2-----2|
A|-2--------0---------------2-------0----------------------2-------20--------|
E|-------------------------------------------------------3--------------------|


e|----------------|
B|-----2-------2--|
G|----------------|
D|---4-------4----|
A|-2-------2------|
E|----------------|


PART 2 | 2X

e|------------------------------------------------------------|
B|-----2-------------5-------------2--------------------------|
G|---4---4---------7---7---------4---4-----------0------------|
D|--4-----4-------7-----7-------4-----4--------0---0----------|
A|-2-------2-----5-------5-----2-------2------2-----2---2-----|
E|-------------------------------------------3--------3-------|


PART 3 | 1X

e|------------------------|
B|----------------2-------|
G|---------2-----4---4----|
D|---0----2-2---4------4--|
A|--22-0-----2----------|
E|-3----------------------|


REPEAT EVERYTHING AGAIN, FADE OUT ON 3rd TIME

Related for Legend Of Zelda - Kakariko Is Saved tab