Song name
# A B C D E F G H I J K L M N O P Q R S T U V W X Y Z

Misc Computer Games - Guitar Hero Theme tab

=============================================================================
              Guitar Hero 3 - Neversoft Guitar Solo
=============================================================================


Tuning: Standard

e|-12~~12~~12~~12~~-15b17-12---------------------------------------------|
B|-----------------------------12-15b17----------------------------------|
G|-----------------------------------------------------------------------|
D|-----------------------------------------------------------------------|
A|-----------------------------------------------------------------------|
E|-----------------------------------------------------------------------|

e|-----------------------------------------------------------------------|
B|-15p14p12-14-12h14p12----12--------------------------------------------|
G|----------------------14----14-11b12-9h11p9----------------------------|
D|--------------------------------------------11h9-----------------------|
A|-----------------------------------------------------------------------|
E|-----------------------------------------------------------------------|

e|-----------------------------------------------------------------------|
B|-----------------------------------------------------------------------|
G|-9------9------9------9------9------9------9------9------9------9------|
D|---9h11---9h11---9h11---9h11---9h11---9h11---9h11---9h11---9h11---9h11-|
A|-----------------------------------------------------------------------|
E|-----------------------------------------------------------------------|

e|-------------------|
B|-------------10----|
G|-9h11p9-9-11----12-|
D|-------------------|
A|-------------------|
E|-------------------|

e|----------------12----------------12----------------12----------|
B|-15-14-12-14-15----15-14-12-14-15----15-14-12-14-15----15-14-12-|
G|----------------------------------------------------------------|
D|----------------------------------------------------------------|
A|----------------------------------------------------------------|
E|----------------------------------------------------------------|

e|----------------------------------------------------------------|
B|-15-14-12-------15----------------------------------------------|
G|----------14b16----15p14p12-15p14p12-14-------------------------|
D|----------------------------------------14-12-------12----------|
A|----------------------------------------------14-12----14-12----|
E|-------------------------------------------------------------15-|

e|------------------------------------------0---------------------|
B|----------------------------12~----\------0---------------------|
G|----------------------12-14-14b16~-\------1---------------------|
D|-------12---------------------------------2---------------------|
A|-12-14----14----12-14-------------------2-2---------------------|
E|-------------12-------------------------0-0---------------------|


| /  slide up
| h  hammer-on
| p  pull-off
| b  bend
| ~  vibrato


==========================================================================
Tap to rate this tab
# A B C D E F G H I J K L M N O P Q R S T U V W X Y Z