Song name
# A B C D E F G H I J K L M N O P Q R S T U V W X Y Z

Misc Computer Games - Gears Of War - Hopes Runs Deep tab

Composed by Steve Jablonsky for Gears of War 2
Actually not the intro, but the most amazing part of the song


Standard Tuning ( E A D G B e )
Start at 1:04 with voices, then the instruments, but they're are the same notes  
to play it with the song

1:04
|--------------------------------------------------------|
|--------------------------------------------------------|
|--------------------------------------------------------|
|----------------------------------------------------4---|
|---6-5-3--------3---5-6-2------6-5-3--------3---5-6-----|
|------------3---------------------------3---------------|

|--------------------------------------------------------|
|--------------------------------------------------------|
|--------------------------------------------------------|
|---5--------6--1-3-5------3------1----------------------|
|--------3--------------3-------2---2-5-3----------------|
|--------------------------------------------------------|
Tap to rate this tab
# A B C D E F G H I J K L M N O P Q R S T U V W X Y Z