Song name
# A B C D E F G H I J K L M N O P Q R S T U V W X Y Z

Misc Computer Games - Final Fantasy - Ending Theme tab

-------------------------------------------------------------------------------
			       Final Fantasy I - Ending Theme - Nobuo Uematsu
-------------------------------------------------------------------------------
Tabbed by:Xaxu
Tuning:Standard


This was submitted by an Unregistered User. I converted this from Powertab to 
text format for those who do not have Guitar Pro or TuxGuitar.
The video used for timing is here = http://www.youtube.com/watch?v=-Z-WkmuFyeQ

  0:01 - 0:07
e|--------------------------------------|
B|------1--------1--------3--------1----|
G|----0--------2--------4--------2------|
D|--2-----2--3-----3--5-----5--3-----3--|
A|--3--------3--------3--------3--------|
E|--------------------------------------|

  0:08 - 0:13
e|--------------------------------------|
B|------1--------1--------3--------1----|
G|----0--------2--------4--------2------|
D|--2-----2--3-----3--5-----5--3-----3--|
A|--3--------3--------3--------3--------|
E|--------------------------------------|

  0:14 - 0:25
e|--0--3-----0--1--0-------------1-----------0--------|
B|--1-----3-----------3--1-------1-----1--3--1--3-----|
G|--0-----0--------0----------------1-----0--0--0-----|
D|----------------------------3--------3--0-----0-----|
A|--3-----2--------1-------0-----------------3--------|
E|-------------------------------4-----3--1-----3--1--|

  0:26 - 0:37
e|--0--3-----0--1--0----------------1--------------------7--|
B|--1-----3-----------3--1----------1-----1--3--1------9----|
G|--0-----0--------0-------------------1-----0--0----9------|
D|----------------------------3--0--------3--0--2-----------|
A|--3-----2--------1-------0--------------------------------|
E|----------------------------------4-----3--1--0--7--------|

  0:38 - 0:49
e|--8--7--5--3--------5--3-------1--0---------0----------------|
B|-------------------------6--5--3----3--1--3------1--3--1--0--|
G|--9--7--5--4--2--0--5----------2-------0------2--2--------1--|
D|--------------------3-------5--3-------2---------4--------2--|
A|--0-------------------------3--1-------0---------0--------2--|
E|-----------0-------------------------------------------------|

  0:50 - 1:01
e|--8--7--5--3--------5--3---------3--5-------3--5--5--3--|
B|-------------------------6--5--6----3--3--6-------6--4--|
G|--9--7--5--4--2--0--5---------------3--3----------5--6--|
D|--------------------3-------5-------3-------------0-----|
A|--0-------------------------3---------------------------|
E|-----------0-----------------------------------------3--|

  1:03 - 1:13
e|--0--3-----0--1--0-------------1-----------0--------|
B|--1-----3-----------3--1-------1-----1--3--1--3-----|
G|--0-----0--------0----------------1-----0--0--0-----|
D|----------------------------3--------3--0-----0-----|
A|--3-----2--------1-------0-----------------3--------|
E|-------------------------------4-----3--1-----3--1--|

  1:14 - 1:22
e|--0--3-----0--1--0----------------1-----------|
B|--1-----3-----------3--1----------1-----1--3--|
G|--0-----0--------0-------------------1-----0--|
D|----------------------------3--0--------3--0--|
A|--3-----2--------1-------0--------------------|
E|----------------------------------4-----3--1--|

  1:23 - 1:24
e|-----|
B|--1--|
G|--0--|
D|--2--|
A|--3--|
E|-----|

Repeat till infinity

| /  slide up
| \  slide down
| h  hammer-on
| p  pull-off
| ~  vibrato
| +  harmonic
| x  Mute note
===============================================================================
Tap to rate this tab
 
# A B C D E F G H I J K L M N O P Q R S T U V W X Y Z