Song name
# A B C D E F G H I J K L M N O P Q R S T U V W X Y Z

Misc Computer Games - Final Fantasy - Opening Theme tab

-------------------------------------------------------------------------------
		               Final Fantasy I Opening Theme - Nobuo Uematsu
-------------------------------------------------------------------------------
Tabbed by:Xaxu
Tuning:Standard

This was submitted by an Unregistered User. I converted this from Powertab to 
text format for those who do not have Guitar Pro or TuxGuitar.
The video used for timing is here = http://www.youtube.com/watch?v=vqmDtgz0o1c
The video doesn't go as far as the tab does but i will put the time that I think
it should be.


  0:01 - 0:11
e|------0----3--2--0---------0----------|
B|----3------0--3----3--2--3---3--3--2--|
G|--2-----2--0--2----0------------2--2--|
D|--0-----------------------------2--2--|
A|------4----2--0-----------------0-----|
E|-------------------3-------4----------|

  0:12 - 022
e|----0--2----5--3--2--0---2--0----2--0--|
B|--0------0--0--0-------4------0--2--2--|
G|--0---------0---------------1----2--2--|
D|------------2--1-----2------0----------|
A|---------------------------------4--0--|
E|--3----2-------------------------------|

  0:23 - 0:33
e|------0----3--2--0---------0----------|
B|----3------0--3----3--2--3---3--3--2--|
G|--2-----2--0--2----0------------2--2--|
D|--0-----------------------------2--2--|
A|------4----2--0-----------------0-----|
E|-------------------3-------4----------|

  0:34 - 0:43
e|----0--2----5--3--2--0---2--0----2--0--|
B|--0------0--0--0-------4------0--2--2--|
G|--0---------0---------------1----2--2--|
D|------------2--1-----2------0----------|
A|---------------------------------4--0--|
E|--3----2-------------------------------|

  0:44 - 0:55
e|--7-----------7--5-----------2--3--3--2--0----0--2--3--5--|
B|--8--7---7--8----7--5---5--7---------------4--0-----0-----|
G|--0----9------0-------7-----------------------0-----0-----|
D|-----------------0-----------0----------------2-----0-----|
A|--------------------------------3--------2----------------|
E|----------------------------------------------------------|

  0:56 - 1:05
e|--8----8--7---3--5--5--6--5--5--6--5--3--2--0--|
B|--6--5----8------3-----------------2-----------|
G|--5--5----9------3-----------------2-----------|
D|--7--5----9------3-----------------------------|
A|-----------------------------------0-----------|
E|------------0----------------------------------|

  1:06 - 1:16
e|------0----3--2--0---------0----------|
B|----3------0--3----3--2--3---3--3--2--|
G|--2-----2--0--2----0------------2--2--|
D|--0-----------------------------2--2--|
A|------4----2--0-----------------0-----|
E|-------------------3-------4----------|

  1:17 - 1:27
e|----0--2----5--3--2--0---2--0----2--0--|
B|--0------0--0--0-------4------0--2--2--|
G|--0---------0---------------1----2--2--|
D|------------2--1-----2------0----------|
A|---------------------------------4--0--|
E|--3----2-------------------------------|

  1:29 - 1:39
e|------0----3--2--0---------0----------|
B|----3------0--3----3--2--3---3--3--2--|
G|--2-----2--0--2----0------------2--2--|
D|--0-----------------------------2--2--|
A|------4----2--0-----------------0-----|
E|-------------------3-------4----------|

  1:40 - 1:49
e|----0--2----5--3--2--0---2--0----2--0--|
B|--0------0--0--0-------4------0--2--2--|
G|--0---------0---------------1----2--2--|
D|------------2--1-----2------0----------|
A|---------------------------------4--0--|
E|--3----2-------------------------------|

  1:50 - 2:01
e|--7-----------7--5-----------2--3--3--2--0----0--2--3--5--|
B|--8--7---7--8----7--5---5--7---------------4--0-----0-----|
G|--0----9------0-------7-----------------------0-----0-----|
D|-----------------0-----------0----------------2-----0-----|
A|--------------------------------3--------2----------------|
E|----------------------------------------------------------|

  2:02 - 2:11
e|--8----8--7---3--5--5--6--5--5--6--5--3--2--0--|
B|--6--5----8------3-----------------2-----------|
G|--5--5----9------3-----------------2-----------|
D|--7--5----9------3-----------------------------|
A|-----------------------------------0-----------|
E|------------0----------------------------------|

  2:12
e|--2--|
B|--3--|
G|--2--|
D|--0--|
A|-----|
E|-----|

Repeat till infinity.

| /  slide up
| \  slide down
| h  hammer-on
| p  pull-off
| ~  vibrato
| +  harmonic
| x  Mute note
===============================================================================
Tap to rate this tab
# A B C D E F G H I J K L M N O P Q R S T U V W X Y Z