Song name
# A B C D E F G H I J K L M N O P Q R S T U V W X Y Z

Misc Computer Games - Punk-o-matic Theme tab

This is my first tab I have ever done. My tab is on the internet game "Punk-o-Matic" 
you can create your own punk music
by putting drum beats and guitar riffs together. Here are the tabs of every 
guitar riff on the game:
(You can find the game on www.addictinggames.com)

Punk-o-Matic
Tabbed by: chronic_stp
Standard Tuning

KEY
h=Hammer-on
p=Pull-off
b=bend
/=Slide Down
\=Slide Up
.=Palm Mute
<>=Natural Harmonic
x=Mute Note
\x=Pick Slide

Guitar 1: Guitar shaped like Gibson Explorer
Guitar 2: Guitar shaped like Gibson SG

Guitar 1 Riff 0:
e|---------------------------------------------------------|
B|---------------------------------------------------------|
G|---------------------------------------------------------|
D|---------------7-7-7-7-7-7-7-----------------------------|
A|-9-9-9-9-9-9-9-5-5-5-5-5-5-5-5-5-5-5-5-5-5-7-7-7-7-7-7-7-|
E|-7-7-7-7-7-7-7---------------3-3-3-3-3-3-3-5-5-5-5-5-5-5-|

Guitar 1 Riff 1 (Repeat Bar)
e|-------------------------|
B|-------------------------|
G|-------------------------|
D|-------------7-7-7-------|
A|-9-9-9-5-5-5-5-5-5-7-7-7-|
E|-7-7-7-3-3-3-------5-5-5-|

Guitar 1 Riff 2
e|---------------------------------------------------------|
B|---------------------------------------------------------|
G|---------------------------------------------------------|
D|---------------7-7-7-7-7-7-7-----------------------------|
A|-9-9-9-9-9-9-9-5-5-5-5-5-5-5-5-5-5-5-5-5-5-7-7-7-7-7-7-7-|
E|-7-7-7-7-7-7-7---------------3-3-3-3-3-3-3-5-5-5-5-5-5-5-|
   .......................................................

Guitar 1 Riff 3
e|-------------------------|
B|-------------------------|
G|-------------------------|
D|-------------7-7-7-------|
A|-9-9-9-5-5-5-5-5-5-7-7-7-|
E|-7-7-7-3-3-3-------5-5-5-|
   .......................

Guitar 1 Riff 4
e|-----------------------------------------------------------|
B|-----------------------------------------------------------|
G|-----------------------------------------------------------|
D|-------------------------------------------------------7-7-|
A|-5-----5-7-----7-9-----9-9-----5-----5-7-----7-9-----9-5-5-|
E|-3-333-3-5-555-5-7-777-7-7-777-3-333-3-5-555-5-7-777-7-----|
     ...     ...     ...     ...   ...     ...     ...

Guitar 1 Riff 5
e|-------------------------------|
B|-------------------------------|
G|-------------------------------|
D|---------------7-7-7-7---------|
A|-9-9-9-5-5-5-5-5-5-5-5-7-7-7-7-|
E|-7-7-7-3-3-3-3---------5-5-5-5-|
   . .   . .     . .     . .

Guitar 1 Riff 6
e|---
B|---
G|---
D|-\x
A|-\x
E|---

Guitar 1 Riff 7
e|-------------------|
B|-------------------|
G|-------------------|
D|-----------7-7-----|
A|-9-9-9-9-9-5-5-5-5-|
E|-7-7-7-7-7-----3-3-|

Guitar 1 Riff 8
e|--------------------------------------------------------------------|
B|--------------------------------------------------------------------|
G|--------------------------------------------------------------------|
D|-5-5-5-5-5-5-5-7-7-7-7-7-7-7-9-9-9-9-9-9-9-11-11-11-11-11-11-11-\11-|
A|--------------------------------------------------------------------|
E|--------------------------------------------------------------------|
   . . . . . . . . . . . . . . . . . . . . . .  .  .  .  .  .  .

Guitar 1 Riff 9
e|------------------------------------------------------------|
B|------------------------------------------------------------|
G|------------------------------------------------------------|
D|---------------7-----7-----7-11-----11-----11-9-----9-----9-|
A|-9-----9-----9-5-555-5-555-5-9--999-9--999-9--7-777-7-777-7-|
E|-7-777-7-777-7----------------------------------------------|
     ...   ...     ...   ...      ...    ...      ...   ...

Guitar 1 Riff 10 (Repeat Bar)
e|-------------------------------------------------|
B|-------------------------------------------------|
G|-------------------------------------------------|
D|-------------------------------------------------|
A|-9-9-9-9-----------------5-5-5-5-----------------|
E|-7-7-7-7-<7>-<7>-<7>-<7>-3-3-3-3-----------------|3>-<3>-<3>-<3>

Guitar 1 Riff 11
e|--
B|--
G|--
D|--
A|-9
E|-7

Guitar 1 Riff 12
e|--
B|--
G|--
D|--
A|-9
E|-7

Guitar 2 Riff 0
e|-----------------------------------------------------------------|
B|-----------------------------------------------------------------|
G|-----------------------------------------------------------------|
D|-7-7-7-4-4-4---------------4-4-4-7-7-7-4-4-4---------------------|
A|-------------7-7-5-5-7-7-7-------------------7-7-5-5-4-4-4\3h5p3-|
E|-----------------------------------------------------------------|
   . . . . . . . . . . . . . . . . . . . . . . . . . .

Guitar 2 Riff 1
e|------------------------------------------------------|
B|------------------------------------------------------|
G|------------------------------------------------------|
D|-/7-7-7-4-4-4---------------4-4-4-0-0-0-0-0-4-4-2-2-2-|
A|--------------7-7-5-5-7-7-7---------------------------|
E|------------------------------------------------------|

Guitar 2 Riff 2
e|------------------------------|
B|------------------------------|
G|------------------------------|
D|-/7-7-7-7-7-7-9-9-9-7-7-7-6-6-|
A|------------------------------|
E|------------------------------|

Guitar 2 Riff 3
e|-----------------------------------|
B|-----------------------------------|
G|-----------------------------------|
D|-9-9-9-7-7-7-5-5-4-4-4-5-5-5-4-4-4-|
A|-----------------------------------|
E|-----------------------------------|
   . . . . . . . . . . . . . .

Guitar 2 Riff 4
e|--------------------------------|
B|--------------------------------|
G|-11-11-11-9-9-9-7-7-6-6-6-7-7-7-|
D|-11-11-11-9-9-9-7-7-6-6-6-7-7-7-|
A|--------------------------------|
E|--------------------------------|

Guitar 2 Riff 5
e|------------------------------------|
B|------------------------------------|
G|------------------------------------|
D|-7-7-7-7-7-7-7/11-11-11-11-11-11-11-|
A|------------------11----11----11----|
E|------------------------------------|
   . . . . . . . .  .  .  .  .  .  .

Guitar 2 Riff 6
e|-------------------------------|
B|-------------------------------|
G|-11-9--------------------------|
D|------12-12-11h12p11\7-7-7h9-9-|
A|-------------------------------|
E|-------------------------------|

Guitar 2 Riff 7
e|-----------------------|
B|-----------------------|
G|-------------7p6-------|
D|-7/9-9-x-x-x-----7-xxx-|
A|-----------------------|
E|-----------------------|

Guitar 2 Riff 8
e|--------------------------|
B|----------7-8-7---7-------|
G|------7-9-------9---9-7-6-|
D|-9-11---------------------|
A|--------------------------|
E|--------------------------|

Guitar 2 Riff 9
e|-------|
B|-------|
G|-------|
D|-------|
A|-----\x
E|-7b9-\x

Guitar 2 Riff 10
e|--
B|--
G|--
D|--
A|-2
E|--

Please rate and comment! It would be greatly appreciated ;)
Tap to rate this tab
# A B C D E F G H I J K L M N O P Q R S T U V W X Y Z