Song name
# A B C D E F G H I J K L M N O P Q R S T U V W X Y Z

Misc Computer Games - Dynasty Warriors 5 - The Elegy Of Battle tab

This is the song I've figured out by ear.
This is my second tab.
The entire song is on lead btw.

e--9b11-9-------------------------------------------------|
b---------12-11-12--11h12p11p9----------------------------|
g---------------------------------------------------------|
d---------------------------------------------------------|
a---------------------------------------------------------|
e---------------------------------------------------------|

e----------------------------------------16-18b19-18-16-15-16------------|
b-------------------16----16-17-16-17-19---------------------------------|
g-16-15-16-18-16-18----18------------------------------------------------|
d------------------------------------------------------------------------|
a------------------------------------------------------------------------|
e------------------------------------------------------------------------|

e-------------------------19b21-19-18------------------------------------|
b-16-17-19-19b21-19-17---------------------------------------------------|
g----------------------16------------------------------------------------|
d------------------------------------------------------------------------|
a------------------------------------------------------------------------|
e------------------------------------------------------------------------|


e---------------------------------------------------------|
b-------7-9-11-12-11-12-11-12-9-14b16-14-12-10-9----------|
g---/8~---------------------------------------------------|
d---------------------------------------------------------|
a---------------------------------------------------------|
e---------------------------------------------------------|

e----------14-13-14-16-18-18b19-18--16---18-18b19-18-16---|
b-12~-14~-16~---------------------------------------------|
g---------------------------------------------------------|
d---------------------------------------------------------|
a---------------------------------------------------------|
e---------------------------------------------------------|
 
e---------------------------------------------------------|
b---------------------------------------------------------|
g-----------------------4---------------------------------|
d-4---6-------4---6-----4---------------------------------|
a-4---6-------4---6---------------------------------------|
e---------------------------------------------------------|
Tap to rate this tab
# A B C D E F G H I J K L M N O P Q R S T U V W X Y Z